  0
SECTION
  2
HEADER
  9
$ACADVER
  1
AC1015
  9
$ACADMAINTVER
 70
    20
  9
$DWGCODEPAGE
  3
ANSI_1252
  9
$INSBASE
 10
9.818615751799999
 20
11.3177215815
 30
0.0
  9
$EXTMIN
 10
6.4436157518
 20
9.280221581499999
 30
0.0
  9
$EXTMAX
 10
13.1936157518
 20
12.51772156018456
 30
0.0
  9
$LIMMIN
 10
0.0
 20
0.0
  9
$LIMMAX
 10
34.0
 20
22.0
  9
$ORTHOMODE
 70
     1
  9
$REGENMODE
 70
     1
  9
$FILLMODE
 70
     1
  9
$QTEXTMODE
 70
     0
  9
$MIRRTEXT
 70
     1
  9
$LTSCALE
 40
1.87
  9
$ATTMODE
 70
     1
  9
$TEXTSIZE
 40
0.2
  9
$TRACEWID
 40
0.05
  9
$TEXTSTYLE
  7
STANDARD
  9
$CLAYER
  8
0
  9
$CELTYPE
  6
BYLAYER
  9
$CECOLOR
 62
   256
  9
$CELTSCALE
 40
1.0
  9
$DISPSILH
 70
     0
  9
$DIMSCALE
 40
1.0
  9
$DIMASZ
 40
0.1875
  9
$DIMEXO
 40
0.2125
  9
$DIMDLI
 40
1.292
  9
$DIMRND
 40
0.0
  9
$DIMDLE
 40
0.0
  9
$DIMEXE
 40
0.612
  9
$DIMTP
 40
0.0
  9
$DIMTM
 40
0.0
  9
$DIMTXT
 40
0.15625
  9
$DIMCEN
 40
0.306
  9
$DIMTSZ
 40
0.0
  9
$DIMTOL
 70
     0
  9
$DIMLIM
 70
     0
  9
$DIMTIH
 70
     1
  9
$DIMTOH
 70
     1
  9
$DIMSE1
 70
     0
  9
$DIMSE2
 70
     0
  9
$DIMTAD
 70
     0
  9
$DIMZIN
 70
     0
  9
$DIMBLK
  1

  9
$DIMASO
 70
     1
  9
$DIMSHO
 70
     1
  9
$DIMPOST
  1

  9
$DIMAPOST
  1

  9
$DIMALT
 70
     0
  9
$DIMALTD
 70
     2
  9
$DIMALTF
 40
25.4
  9
$DIMLFAC
 40
1.0
  9
$DIMTOFL
 70
     0
  9
$DIMTVP
 40
0.0
  9
$DIMTIX
 70
     0
  9
$DIMSOXD
 70
     0
  9
$DIMSAH
 70
     0
  9
$DIMBLK1
  1

  9
$DIMBLK2
  1

  9
$DIMSTYLE
  2
STANDARD
  9
$DIMCLRD
 70
     0
  9
$DIMCLRE
 70
     0
  9
$DIMCLRT
 70
     0
  9
$DIMTFAC
 40
1.0
  9
$DIMGAP
 40
0.09
  9
$DIMJUST
 70
     0
  9
$DIMSD1
 70
     0
  9
$DIMSD2
 70
     0
  9
$DIMTOLJ
 70
     1
  9
$DIMTZIN
 70
     0
  9
$DIMALTZ
 70
     0
  9
$DIMALTTZ
 70
     0
  9
$DIMUPT
 70
     0
  9
$DIMDEC
 70
     4
  9
$DIMTDEC
 70
     4
  9
$DIMALTU
 70
     2
  9
$DIMALTTD
 70
     2
  9
$DIMTXSTY
  7
STANDARD
  9
$DIMAUNIT
 70
     0
  9
$DIMADEC
 70
     0
  9
$DIMALTRND
 40
0.0
  9
$DIMAZIN
 70
     0
  9
$DIMDSEP
 70
    46
  9
$DIMATFIT
 70
     3
  9
$DIMFRAC
 70
     0
  9
$DIMLDRBLK
  1

  9
$DIMLUNIT
 70
     2
  9
$DIMLWD
 70
    -2
  9
$DIMLWE
 70
    -2
  9
$DIMTMOVE
 70
     0
  9
$LUNITS
 70
     2
  9
$LUPREC
 70
     4
  9
$SKETCHINC
 40
0.1
  9
$FILLETRAD
 40
0.0
  9
$AUNITS
 70
     0
  9
$AUPREC
 70
     0
  9
$MENU
  1
acad
  9
$ELEVATION
 40
0.0
  9
$PELEVATION
 40
0.0
  9
$THICKNESS
 40
0.0
  9
$LIMCHECK
 70
     0
  9
$CHAMFERA
 40
0.0
  9
$CHAMFERB
 40
0.0
  9
$CHAMFERC
 40
0.0
  9
$CHAMFERD
 40
0.0
  9
$SKPOLY
 70
     0
  9
$TDCREATE
 40
2444971.833333334
  9
$TDUCREATE
 40
2444972.000000000
  9
$TDUPDATE
 40
2454713.634683693
  9
$TDUUPDATE
 40
2454713.801350359
  9
$TDINDWG
 40
0.0198373264
  9
$TDUSRTIMER
 40
0.0198373264
  9
$USRTIMER
 70
     1
  9
$ANGBASE
 50
0.0
  9
$ANGDIR
 70
     0
  9
$PDMODE
 70
     0
  9
$PDSIZE
 40
0.0
  9
$PLINEWID
 40
0.0
  9
$SPLFRAME
 70
     0
  9
$SPLINETYPE
 70
     6
  9
$SPLINESEGS
 70
     8
  9
$HANDSEED
  5
119
  9
$SURFTAB1
 70
     6
  9
$SURFTAB2
 70
     6
  9
$SURFTYPE
 70
     6
  9
$SURFU
 70
     6
  9
$SURFV
 70
     6
  9
$UCSBASE
  2

  9
$UCSNAME
  2

  9
$UCSORG
 10
0.0
 20
0.0
 30
0.0
  9
$UCSXDIR
 10
1.0
 20
0.0
 30
0.0
  9
$UCSYDIR
 10
0.0
 20
1.0
 30
0.0
  9
$UCSORTHOREF
  2

  9
$UCSORTHOVIEW
 70
     0
  9
$UCSORGTOP
 10
0.0
 20
0.0
 30
0.0
  9
$UCSORGBOTTOM
 10
0.0
 20
0.0
 30
0.0
  9
$UCSORGLEFT
 10
0.0
 20
0.0
 30
0.0
  9
$UCSORGRIGHT
 10
0.0
 20
0.0
 30
0.0
  9
$UCSORGFRONT
 10
0.0
 20
0.0
 30
0.0
  9
$UCSORGBACK
 10
0.0
 20
0.0
 30
0.0
  9
$PUCSBASE
  2

  9
$PUCSNAME
  2

  9
$PUCSORG
 10
0.0
 20
0.0
 30
0.0
  9
$PUCSXDIR
 10
1.0
 20
0.0
 30
0.0
  9
$PUCSYDIR
 10
0.0
 20
1.0
 30
0.0
  9
$PUCSORTHOREF
  2

  9
$PUCSORTHOVIEW
 70
     0
  9
$PUCSORGTOP
 10
0.0
 20
0.0
 30
0.0
  9
$PUCSORGBOTTOM
 10
0.0
 20
0.0
 30
0.0
  9
$PUCSORGLEFT
 10
0.0
 20
0.0
 30
0.0
  9
$PUCSORGRIGHT
 10
0.0
 20
0.0
 30
0.0
  9
$PUCSORGFRONT
 10
0.0
 20
0.0
 30
0.0
  9
$PUCSORGBACK
 10
0.0
 20
0.0
 30
0.0
  9
$USERI1
 70
     0
  9
$USERI2
 70
     0
  9
$USERI3
 70
     0
  9
$USERI4
 70
     0
  9
$USERI5
 70
     0
  9
$USERR1
 40
0.0
  9
$USERR2
 40
0.0
  9
$USERR3
 40
0.0
  9
$USERR4
 40
0.0
  9
$USERR5
 40
0.0
  9
$WORLDVIEW
 70
     1
  9
$SHADEDGE
 70
     3
  9
$SHADEDIF
 70
    70
  9
$TILEMODE
 70
     1
  9
$MAXACTVP
 70
    16
  9
$PINSBASE
 10
0.0
 20
0.0
 30
0.0
  9
$PLIMCHECK
 70
     0
  9
$PEXTMIN
 10
1.07500002421732
 20
0.8205416944083268
 30
0.0
  9
$PEXTMAX
 10
9.675000217955883
 20
7.384875249674939
 30
0.0
  9
$PLIMMIN
 10
-0.1249995194082185
 20
-0.1249999981226884
  9
$PLIMMAX
 10
10.87500024029589
 20
8.37499976158142
  9
$UNITMODE
 70
     0
  9
$VISRETAIN
 70
     0
  9
$PLINEGEN
 70
     1
  9
$PSLTSCALE
 70
     1
  9
$TREEDEPTH
 70
  3020
  9
$CMLSTYLE
  2
STANDARD
  9
$CMLJUST
 70
     0
  9
$CMLSCALE
 40
1.0
  9
$PROXYGRAPHICS
 70
     1
  9
$MEASUREMENT
 70
     0
  9
$CELWEIGHT
370
    -1
  9
$ENDCAPS
280
     0
  9
$JOINSTYLE
280
     0
  9
$LWDISPLAY
290
     0
  9
$INSUNITS
 70
     1
  9
$HYPERLINKBASE
  1

  9
$STYLESHEET
  1

  9
$XEDIT
290
     1
  9
$CEPSNTYPE
380
     0
  9
$PSTYLEMODE
290
     1
  9
$FINGERPRINTGUID
  2
{A5906194-F8BD-4323-AAEB-308A280836CB}
  9
$VERSIONGUID
  2
{1DD1D7B8-33D2-4605-AE9A-259503B54A80}
  9
$EXTNAMES
290
     1
  9
$PSVPSCALE
 40
0.0
  9
$OLESTARTUP
290
     0
  0
ENDSEC
  0
SECTION
  2
CLASSES
  0
CLASS
  1
IMAGE
  2
AcDbRasterImage
  3
ISM
 90
    34943
280
     1
281
     1
  0
CLASS
  1
DICTIONARYVAR
  2
AcDbDictionaryVar
  3
ObjectDBX Classes
 90
        0
280
     0
281
     0
  0
CLASS
  1
RASTERVARIABLES
  2
AcDbRasterVariables
  3
ISM
 90
    32768
280
     1
281
     0
  0
CLASS
  1
IMAGEDEF
  2
AcDbRasterImageDef
  3
ISM
 90
    32768
280
     1
281
     0
  0
CLASS
  1
IMAGEDEF_REACTOR
  2
AcDbRasterImageDefReactor
  3
ISM
 90
    32769
280
     1
281
     0
  0
CLASS
  1
IDBUFFER
  2
AcDbIdBuffer
  3
ObjectDBX Classes
 90
    32768
280
     0
281
     0
  0
CLASS
  1
SPATIAL_FILTER
  2
AcDbSpatialFilter
  3
ObjectDBX Classes
 90
    32768
280
     0
281
     0
  0
CLASS
  1
SORTENTSTABLE
  2
AcDbSortentsTable
  3
ObjectDBX Classes
 90
    32768
280
     0
281
     0
  0
CLASS
  1
LAYER_INDEX
  2
AcDbLayerIndex
  3
ObjectDBX Classes
 90
    32768
280
     0
281
     0
  0
CLASS
  1
SPATIAL_INDEX
  2
AcDbSpatialIndex
  3
ObjectDBX Classes
 90
    32768
280
     0
281
     0
  0
CLASS
  1
OBJECT_PTR
  2
CAseDLPNTableRecord
  3
ASE-LPNTableRecord
 90
    32769
280
     1
281
     0
  0
CLASS
  1
LAYOUT
  2
AcDbLayout
  3
ObjectDBX Classes
 90
        0
280
     0
281
     0
  0
CLASS
  1
PLOTSETTINGS
  2
AcDbPlotSettings
  3
ObjectDBX Classes
 90
    32768
280
     0
281
     0
  0
CLASS
  1
ACDBDICTIONARYWDFLT
  2
AcDbDictionaryWithDefault
  3
ObjectDBX Classes
 90
        0
280
     0
281
     0
  0
CLASS
  1
ACDBPLACEHOLDER
  2
AcDbPlaceHolder
  3
ObjectDBX Classes
 90
        0
280
     0
281
     0
  0
CLASS
  1
VBA_PROJECT
  2
AcDbVbaProject
  3
acad
 90
    32768
280
     0
281
     0
  0
CLASS
  1
WIPEOUT
  2
AcDbWipeout
  3
"WipeOut|Product Desc: Object Enabler for WipeOut entity                        |Company: Autodesk, Inc.                        |WEB Address: www.autodesk.com"
 90
    34943
280
     1
281
     1
  0
CLASS
  1
WIPEOUTVARIABLES
  2
AcDbWipeoutVariables
  3
"WipeOut|Product Desc:     WipeOut Dbx Application|Company:          Autodesk, Inc.|WEB Address:      www.autodesk.com"
 90
    32768
280
     1
281
     0
  0
CLASS
  1
RTEXT
  2
RText
  3
RText|AutoCAD Express Tool|expresstools@autodesk.com
 90
    32768
280
     1
281
     1
  0
CLASS
  1
ARCALIGNEDTEXT
  2
AcDbArcAlignedText
  3
ATEXT|AutoCAD Express Tool|expresstools@autodesk.com
 90
    32768
280
     1
281
     1
  0
CLASS
  1
MATERIAL
  2
AcDbMaterial
  3
ObjectDBX Classes
 90
     1024
280
     0
281
     0
  0
CLASS
  1
VISUALSTYLE
  2
AcDbVisualStyle
  3
ObjectDBX Classes
 90
     4095
280
     0
281
     0
  0
CLASS
  1
TABLESTYLE
  2
AcDbTableStyle
  3
ObjectDBX Classes
 90
     4095
280
     0
281
     0
  0
CLASS
  1
SOLID_BACKGROUND
  2
AcDbSolidBackground
  3
SCENEOE
 90
    36863
280
     0
281
     0
  0
CLASS
  1
NPOCOLLECTION
  2
AcDbImpNonPersistentObjectsCollection
  3
ObjectDBX Classes
 90
    33921
280
     0
281
     0
  0
ENDSEC
  0
SECTION
  2
TABLES
  0
TABLE
  2
VPORT
  5
20
102
{ACAD_XDICTIONARY
360
24
102
}
330
0
100
AcDbSymbolTable
 70
     1
  0
VPORT
  5
21
330
20
100
AcDbSymbolTableRecord
100
AcDbViewportTableRecord
  2
*Active
 70
     0
 10
0.0
 20
0.0
 11
1.0
 21
1.0
 12
18.67958736780498
 22
13.00242310202703
 13
0.0
 23
0.0
 14
1.0
 24
1.0
 15
0.0
 25
0.0
 16
0.0
 26
0.0
 36
1.0
 17
0.0
 27
0.0
 37
0.0
 40
20.3324383644591
 41
2.067515923566879
 42
50.0
 43
0.0
 44
0.0
 50
0.0
 51
0.0
 71
     0
 72
   100
 73
     1
 74
     1
 75
     0
 76
     0
 77
     0
 78
     0
281
     0
 65
     1
110
0.0
120
0.0
130
0.0
111
1.0
121
0.0
131
0.0
112
0.0
122
1.0
132
0.0
 79
     0
146
0.0
  0
ENDTAB
  0
TABLE
  2
LTYPE
  5
1B
330
0
100
AcDbSymbolTable
 70
     1
  0
LTYPE
  5
1C
330
1B
100
AcDbSymbolTableRecord
100
AcDbLinetypeTableRecord
  2
BYBLOCK
 70
     0
  3

 72
    65
 73
     0
 40
0.0
  0
LTYPE
  5
1D
330
1B
100
AcDbSymbolTableRecord
100
AcDbLinetypeTableRecord
  2
BYLAYER
 70
     0
  3

 72
    65
 73
     0
 40
0.0
  0
LTYPE
  5
A
330
1B
100
AcDbSymbolTableRecord
100
AcDbLinetypeTableRecord
  2
CONTINUOUS
 70
     0
  3
Solid line
 72
    65
 73
     0
 40
0.0
  0
ENDTAB
  0
TABLE
  2
LAYER
  5
15
102
{ACAD_XDICTIONARY
360
16
102
}
330
0
100
AcDbSymbolTable
 70
     1
  0
LAYER
  5
4
330
15
100
AcDbSymbolTableRecord
100
AcDbLayerTableRecord
  2
0
 70
     0
 62
     7
  6
CONTINUOUS
370
    -3
390
5
  0
ENDTAB
  0
TABLE
  2
STYLE
  5
18
330
0
100
AcDbSymbolTable
 70
     1
  0
STYLE
  5
19
330
18
100
AcDbSymbolTableRecord
100
AcDbTextStyleTableRecord
  2
STANDARD
 70
     0
 40
0.0
 41
0.8
 50
0.0
 71
     0
 42
0.2
  3
txt
  4

  0
ENDTAB
  0
TABLE
  2
VIEW
  5
1E
330
0
100
AcDbSymbolTable
 70
     0
  0
ENDTAB
  0
TABLE
  2
UCS
  5
1F
330
0
100
AcDbSymbolTable
 70
     0
  0
ENDTAB
  0
TABLE
  2
APPID
  5
25
330
0
100
AcDbSymbolTable
 70
     3
  0
APPID
  5
26
330
25
100
AcDbSymbolTableRecord
100
AcDbRegAppTableRecord
  2
ACAD
 70
     0
  0
APPID
  5
14
330
25
100
AcDbSymbolTableRecord
100
AcDbRegAppTableRecord
  2
ACAD_PSEXT
 70
     0
  0
APPID
  5
F6
330
25
100
AcDbSymbolTableRecord
100
AcDbRegAppTableRecord
  2
AcDbAttr
 70
     0
  0
ENDTAB
  0
TABLE
  2
DIMSTYLE
  5
27
330
0
100
AcDbSymbolTable
 70
     1
100
AcDbDimStyleTable
 71
     0
  0
DIMSTYLE
105
34
330
27
100
AcDbSymbolTableRecord
100
AcDbDimStyleTableRecord
  2
STANDARD
 70
     0
 41
0.1875
 47
0.001
 48
0.001
 78
     4
140
0.15625
271
     3
272
     3
284
     4
340
19
  0
ENDTAB
  0
TABLE
  2
BLOCK_RECORD
  5
1
330
0
100
AcDbSymbolTable
 70
     0
  0
BLOCK_RECORD
  5
2
330
1
100
AcDbSymbolTableRecord
100
AcDbBlockTableRecord
  2
*MODEL_SPACE
340
C
  0
BLOCK_RECORD
  5
E
330
1
100
AcDbSymbolTableRecord
100
AcDbBlockTableRecord
  2
*Paper_Space
340
11
  0
ENDTAB
  0
ENDSEC
  0
SECTION
  2
BLOCKS
  0
BLOCK
  5
3
330
2
100
AcDbEntity
  8
0
100
AcDbBlockBegin
  2
*MODEL_SPACE
 70
     2
 10
0.0
 20
0.0
 30
0.0
  3
*MODEL_SPACE
  1

  0
ENDBLK
  5
B
330
2
100
AcDbEntity
  8
0
100
AcDbBlockEnd
  0
BLOCK
  5
F
330
E
100
AcDbEntity
 67
     1
  8
0
100
AcDbBlockBegin
  2
*Paper_Space
 70
     0
 10
0.0
 20
0.0
 30
0.0
  3
*Paper_Space
  1

  0
ENDBLK
  5
10
330
E
100
AcDbEntity
 67
     1
  8
0
100
AcDbBlockEnd
  0
ENDSEC
  0
SECTION
  2
ENTITIES
  0
LINE
  5
35
330
2
100
AcDbEntity
  8
0
100
AcDbLine
 10
7.437802594999999
 20
10.5769199003
 30
0.0
 11
7.501804418599999
 21
10.1215232627
 31
0.0
  0
LINE
  5
36
330
2
100
AcDbEntity
  8
0
100
AcDbLine
 10
8.0835422078
 20
9.9826709253
 30
0.0
 11
8.051001547
 21
10.0368678832
 31
0.0
  0
LINE
  5
37
330
2
100
AcDbEntity
  8
0
100
AcDbLine
 10
8.0454901267
 20
10.0372979058
 30
0.0
 11
8.0454925691
 21
10.0372935142
 31
0.0
  0
LINE
  5
38
330
2
100
AcDbEntity
  8
0
100
AcDbLine
 10
8.4443564248
 20
9.549254814199999
 30
0.0
 11
8.442674550299999
 21
9.550533553399999
 31
0.0
  0
LINE
  5
39
330
2
100
AcDbEntity
  8
0
100
AcDbLine
 10
8.5972022974
 20
9.462556431299999
 30
0.0
 11
8.5950902998
 21
9.463352756
 31
0.0
  0
LINE
  5
3A
330
2
100
AcDbEntity
  8
0
100
AcDbLine
 10
8.488377790299999
 20
9.5182948546
 30
0.0
 11
8.4846759394
 21
9.520714683199999
 31
0.0
  0
LINE
  5
3B
330
2
100
AcDbEntity
  8
0
100
AcDbLine
 10
9.5082809623
 20
9.280221581499999
 30
0.0
 11
10.1289364499
 21
9.280221581499999
 31
0.0
  0
LINE
  5
3C
330
2
100
AcDbEntity
  8
0
100
AcDbLine
 10
9.4773350852
 20
9.3071224221
 30
0.0
 11
10.1598964184
 21
9.3071224221
 31
0.0
  0
LINE
  5
3D
330
2
100
AcDbEntity
  8
0
100
AcDbLine
 10
10.9123657518
 20
9.436471581499999
 30
0.0
 11
10.9215336689
 21
9.4368982248
 31
0.0
  0
LINE
  5
3E
330
2
100
AcDbEntity
  8
0
100
AcDbLine
 10
11.7249086954
 20
9.436470313199999
 30
0.0
 11
11.7272064175
 21
9.436527745699999
 31
0.0
  0
LINE
  5
3F
330
2
100
AcDbEntity
  8
0
100
AcDbLine
 10
7.911966776999999
 20
9.436471581499999
 30
0.0
 11
11.7252647266
 21
9.436471581499999
 31
0.0
  0
LINE
  5
40
330
2
100
AcDbEntity
  8
0
100
AcDbLine
 10
8.724865751799999
 20
9.436471581499999
 30
0.0
 11
8.715697829999999
 21
9.4368982251
 31
0.0
  0
LINE
  5
41
330
2
100
AcDbEntity
  8
0
100
AcDbLine
 10
9.4773350852
 20
9.3071224221
 30
0.0
 11
9.459156246399999
 21
9.436471581499999
 31
0.0
  0
LINE
  5
42
330
2
100
AcDbEntity
  8
0
100
AcDbLine
 10
7.5636961729
 20
10.0677215815
 30
0.0
 11
12.0735353307
 21
10.0677215815
 31
0.0
  0
LINE
  5
43
330
2
100
AcDbEntity
  8
0
100
AcDbLine
 10
9.8188213321
 20
10.0677215645
 30
0.0
 11
9.818808326699999
 21
10.0369881253
 31
0.0
  0
LINE
  5
44
330
2
100
AcDbEntity
  8
0
100
AcDbLine
 10
12.0017367534
 20
10.1232855997
 30
0.0
 11
7.6354947502
 21
10.1232855997
 31
0.0
  0
LINE
  5
45
330
2
100
AcDbEntity
  8
0
100
AcDbLine
 10
10.1598964184
 20
9.3071224221
 30
0.0
 11
10.1780752572
 21
9.436471581499999
 31
0.0
  0
LINE
  5
46
330
2
100
AcDbEntity
  8
0
100
AcDbLine
 10
13.0410006222
 20
10.6307215815
 30
0.0
 11
12.2481080465
 21
10.6307215815
 31
0.0
  0
LINE
  5
47
330
2
100
AcDbEntity
  8
0
100
AcDbLine
 10
6.5962308814
 20
10.6307215815
 30
0.0
 11
7.3891234571
 21
10.6307215815
 31
0.0
  0
LINE
  5
48
330
2
100
AcDbEntity
  8
0
100
AcDbLine
 10
13.1033988827
 20
10.6896568816
 30
0.0
 11
12.2737645447
 21
10.6896568501
 31
0.0
  0
LINE
  5
49
330
2
100
AcDbEntity
  8
0
100
AcDbLine
 10
6.5338326209
 20
10.6896568816
 30
0.0
 11
7.3634669589
 21
10.6896568501
 31
0.0
  0
LINE
  5
4A
330
2
100
AcDbEntity
  8
0
100
AcDbLine
 10
6.522340418299999
 20
10.9456426468
 30
0.0
 11
13.1148910853
 21
10.9456426468
 31
0.0
  0
LINE
  5
4B
330
2
100
AcDbEntity
  8
0
100
AcDbLine
 10
6.509792222399999
 20
10.976284543
 30
0.0
 11
13.1274392812
 21
10.976284543
 31
0.0
  0
LINE
  5
4C
330
2
100
AcDbEntity
  8
0
100
AcDbLine
 10
11.0400281168
 20
9.462556023499999
 30
0.0
 11
11.0421412038
 21
9.463352756
 31
0.0
  0
LINE
  5
4D
330
2
100
AcDbEntity
  8
0
100
AcDbLine
 10
6.6936157518
 20
11.3177215815
 30
0.0
 11
12.9436157518
 21
11.3177215815
 31
0.0
  0
LINE
  5
4E
330
2
100
AcDbEntity
  8
0
100
AcDbLine
 10
11.1928750792
 20
9.549254814499999
 30
0.0
 11
11.1945936725
 21
9.550561550999999
 31
0.0
  0
LINE
  5
4F
330
2
100
AcDbEntity
  8
0
100
AcDbLine
 10
11.1488220194
 20
9.518274280199999
 30
0.0
 11
11.1525555642
 21
9.520714683199999
 31
0.0
  0
LINE
  5
50
330
2
100
AcDbEntity
  8
0
100
AcDbLine
 10
11.5917413768
 20
10.0372979056
 30
0.0
 11
11.5917389346
 21
10.0372935144
 31
0.0
  0
LINE
  5
51
330
2
100
AcDbEntity
  8
0
100
AcDbLine
 10
11.5536892958
 20
9.9826709253
 30
0.0
 11
11.5862299566
 21
10.0368678832
 31
0.0
  0
LINE
  5
52
330
2
100
AcDbEntity
  8
0
100
AcDbLine
 10
12.1994289085
 20
10.5769199003
 30
0.0
 11
12.135427085
 21
10.1215232627
 31
0.0
  0
ARC
  5
53
330
2
100
AcDbEntity
  8
0
100
AcDbCircle
 10
2.620491117599999
 20
11.2885264742
 30
0.0
 40
10.5
100
AcDbArc
 50
356.7303494567008
 51
358.1286390926008
  0
ARC
  5
54
330
2
100
AcDbEntity
  8
0
100
AcDbCircle
 10
13.1623657518
 20
10.9440915057
 30
0.0
 40
0.0475
100
AcDbArc
 50
137.3320745059003
 51
178.1286390926004
  0
ARC
  5
55
330
2
100
AcDbEntity
  8
0
100
AcDbCircle
 10
12.9436157518
 20
11.1457215815
 30
0.0
 40
0.25
100
AcDbArc
 50
317.3320745059007
 51
360.0000000000008
  0
ARC
  5
56
330
2
100
AcDbEntity
  8
0
100
AcDbCircle
 10
13.0216157518
 20
11.1457215815
 30
0.0
 40
0.172
100
AcDbArc
 50
0.0
 51
90.00000000000019
  0
ARC
  5
57
330
2
100
AcDbEntity
  8
0
100
AcDbCircle
 10
12.2613206628
 20
10.5682215815
 30
0.0
 40
0.0625
100
AcDbArc
 50
90.00000000000019
 51
172.0000000000004
  0
ARC
  5
58
330
2
100
AcDbEntity
  8
0
100
AcDbCircle
 10
9.5082809623
 20
9.311471581499999
 30
0.0
 40
0.03125
100
AcDbArc
 50
188.0000000000004
 51
270.0000000000006
  0
ARC
  5
59
330
2
100
AcDbEntity
  8
0
100
AcDbCircle
 10
6.5962308814
 20
10.6932215815
 30
0.0
 40
0.0625
100
AcDbArc
 50
183.2696505506004
 51
270.0000000000006
  0
ARC
  5
5A
330
2
100
AcDbEntity
  8
0
100
AcDbCircle
 10
12.0735353307
 20
10.1302215815
 30
0.0
 40
0.0625
100
AcDbArc
 50
270.0000000000006
 51
352.0000000000008
  0
ARC
  5
5B
330
2
100
AcDbEntity
  8
0
100
AcDbCircle
 10
17.016740386
 20
11.2885264742
 30
0.0
 40
10.5
100
AcDbArc
 50
181.8713609074004
 51
183.2696505433004
  0
ARC
  5
5C
330
2
100
AcDbEntity
  8
0
100
AcDbCircle
 10
6.4748657518
 20
10.9440915057
 30
0.0
 40
0.0475
100
AcDbArc
 50
1.871360907400004
 51
42.66792549410008
  0
ARC
  5
5D
330
2
100
AcDbEntity
  8
0
100
AcDbCircle
 10
6.6936157518
 20
11.1457215815
 30
0.0
 40
0.25
100
AcDbArc
 50
180.0000000000004
 51
222.6679254941005
  0
ARC
  5
5E
330
2
100
AcDbEntity
  8
0
100
AcDbCircle
 10
6.6156157518
 20
11.1457215815
 30
0.0
 40
0.172
100
AcDbArc
 50
90.00000000000019
 51
180.0000000000004
  0
ARC
  5
5F
330
2
100
AcDbEntity
  8
0
100
AcDbCircle
 10
7.375910840699999
 20
10.5682215815
 30
0.0
 40
0.0625
100
AcDbArc
 50
8.000000000000017
 51
90.00000000000019
  0
ARC
  5
60
330
2
100
AcDbEntity
  8
0
100
AcDbCircle
 10
7.5636961729
 20
10.1302215815
 30
0.0
 40
0.0625
100
AcDbArc
 50
188.0000000000004
 51
270.0000000000006
  0
ARC
  5
61
330
2
100
AcDbEntity
  8
0
100
AcDbCircle
 10
10.1289505412
 20
9.311471581499999
 30
0.0
 40
0.03125
100
AcDbArc
 50
270.0000000000006
 51
352.0000000000008
  0
ARC
  5
62
330
2
100
AcDbEntity
  8
0
100
AcDbCircle
 10
13.0410006222
 20
10.6932215815
 30
0.0
 40
0.0625
100
AcDbArc
 50
270.0000000000006
 51
356.7303494567008
  0
SPLINE
  5
63
330
2
100
AcDbEntity
  8
0
100
AcDbSpline
210
0.0
220
0.0
230
1.0
 70
     8
 71
     3
 72
     9
 73
     5
 74
     3
 42
0.0000000001
 43
0.0000000001
 44
0.0000000001
 40
0.0
 40
0.0
 40
0.0
 40
0.0
 40
0.0043126082392236
 40
0.0196912101299072
 40
0.0196912101299072
 40
0.0196912101299072
 40
0.0196912101299072
 10
8.309368223399999
 20
9.674796696899999
 30
0.0
 10
8.308400941686077
 20
9.675860128953516
 30
0.0
 10
8.303984369062941
 20
9.680715720480296
 30
0.0
 10
8.299617630330672
 20
9.685616263243495
 30
0.0
 10
8.296207259099999
 20
9.6894435291
 30
0.0
 11
8.309368223399999
 21
9.674796696899999
 31
0.0
 11
8.3064687686
 21
9.6779891492
 31
0.0
 11
8.296207259099999
 21
9.6894435291
 31
0.0
  0
SPLINE
  5
64
330
2
100
AcDbEntity
  8
0
100
AcDbSpline
210
0.0
220
0.0
230
1.0
 70
    24
 71
     3
 72
     8
 73
     4
 74
     2
 42
0.0000000001
 43
0.0000000001
 44
0.0000000001
 40
0.0
 40
0.0
 40
0.0
 40
0.0
 40
0.2263053488761174
 40
0.2263053488761174
 40
0.2263053488761174
 40
0.2263053488761174
 10
8.296207259099999
 20
9.6894435291
 30
0.0
 10
8.250029717033331
 20
9.749093268233334
 30
0.0
 10
8.203852174966666
 20
9.808743007366667
 30
0.0
 10
8.157674632899999
 20
9.868392746499999
 30
0.0
 11
8.296207259099999
 21
9.6894435291
 31
0.0
 11
8.157674632899999
 21
9.868392746499999
 31
0.0
  0
SPLINE
  5
65
330
2
100
AcDbEntity
  8
0
100
AcDbSpline
210
0.0
220
0.0
230
1.0
 70
     8
 71
     3
 72
     9
 73
     5
 74
     3
 42
0.0000000001
 43
0.0000000001
 44
0.0000000001
 40
0.0
 40
0.0
 40
0.0
 40
0.0
 40
0.0084203746239266
 40
0.1362199225422064
 40
0.1362199225422064
 40
0.1362199225422064
 40
0.1362199225422064
 10
8.157674632899999
 20
9.868392746499999
 30
0.0
 10
8.156087409758967
 20
9.870707692740786
 30
0.0
 10
8.130410237069515
 20
9.908157546422275
 30
0.0
 10
8.106228841259337
 20
9.946602463690606
 30
0.0
 10
8.0835422078
 20
9.9826709253
 30
0.0
 11
8.157674632899999
 21
9.868392746499999
 31
0.0
 11
8.1529186789
 21
9.8753413874
 31
0.0
 11
8.0835422078
 21
9.9826709253
 31
0.0
  0
SPLINE
  5
66
330
2
100
AcDbEntity
  8
0
100
AcDbSpline
210
0.0
220
0.0
230
1.0
 70
    24
 71
     3
 72
     8
 73
     4
 74
     2
 42
0.0000000001
 43
0.0000000001
 44
0.0000000001
 40
0.0
 40
0.0
 40
0.0
 40
0.0
 40
0.0894698392663376
 40
0.0894698392663376
 40
0.0894698392663376
 40
0.0894698392663376
 10
8.4302354648
 20
9.560213692199999
 30
0.0
 10
8.407848152366668
 20
9.579917403966666
 30
0.0
 10
8.385460839933333
 20
9.599621115733333
 30
0.0
 10
8.363073527499999
 20
9.619324827499999
 30
0.0
 11
8.4302354648
 21
9.560213692199999
 31
0.0
 11
8.363073527499999
 21
9.619324827499999
 31
0.0
  0
SPLINE
  5
67
330
2
100
AcDbEntity
  8
0
100
AcDbSpline
210
0.0
220
0.0
230
1.0
 70
    24
 71
     3
 72
     8
 73
     4
 74
     2
 42
0.0000000001
 43
0.0000000001
 44
0.0000000001
 40
0.0
 40
0.0
 40
0.0
 40
0.0
 40
0.0772100251470238
 40
0.0772100251470238
 40
0.0772100251470238
 40
0.0772100251470238
 10
8.363073527499999
 20
9.619324827499999
 30
0.0
 10
8.345171759466666
 20
9.637815450633333
 30
0.0
 10
8.327269991433333
 20
9.656306073766664
 30
0.0
 10
8.309368223399999
 20
9.674796696899999
 30
0.0
 11
8.363073527499999
 21
9.619324827499999
 31
0.0
 11
8.309368223399999
 21
9.674796696899999
 31
0.0
  0
SPLINE
  5
68
330
2
100
AcDbEntity
  8
0
100
AcDbSpline
210
0.0
220
0.0
230
1.0
 70
     8
 71
     3
 72
     9
 73
     5
 74
     3
 42
0.0000000001
 43
0.0000000001
 44
0.0000000001
 40
0.0
 40
0.0
 40
0.0
 40
0.0
 40
0.0043126082392236
 40
0.0196921476013129
 40
0.0196921476013129
 40
0.0196921476013129
 40
0.0196921476013129
 10
11.3278632802
 20
9.674796696899999
 30
0.0
 10
11.32883056191423
 20
9.675860128953475
 30
0.0
 10
11.33324734480571
 20
9.680715951648092
 30
0.0
 10
11.33761428904189
 20
9.68561672986201
 30
0.0
 10
11.3410248663
 20
9.689444230699999
 30
0.0
 11
11.3278632802
 21
9.674796696899999
 31
0.0
 11
11.330762735
 21
9.6779891492
 31
0.0
 11
11.3410248663
 21
9.689444230699999
 31
0.0
  0
SPLINE
  5
69
330
2
100
AcDbEntity
  8
0
100
AcDbSpline
210
0.0
220
0.0
230
1.0
 70
    24
 71
     3
 72
     8
 73
     4
 74
     2
 42
0.0000000001
 43
0.0000000001
 44
0.0000000001
 40
0.0
 40
0.0
 40
0.0
 40
0.0
 40
0.2263044134569729
 40
0.2263044134569729
 40
0.2263044134569729
 40
0.2263044134569729
 10
11.3410248663
 20
9.689444230699999
 30
0.0
 10
11.3872022011
 20
9.749093735966667
 30
0.0
 10
11.4333795359
 20
9.808743241233335
 30
0.0
 10
11.4795568707
 20
9.868392746499999
 30
0.0
 11
11.3410248663
 21
9.689444230699999
 31
0.0
 11
11.4795568707
 21
9.868392746499999
 31
0.0
  0
SPLINE
  5
6A
330
2
100
AcDbEntity
  8
0
100
AcDbSpline
210
0.0
220
0.0
230
1.0
 70
     8
 71
     3
 72
     9
 73
     5
 74
     3
 42
0.0000000001
 43
0.0000000001
 44
0.0000000001
 40
0.0
 40
0.0
 40
0.0
 40
0.0
 40
0.0084203746239277
 40
0.1362199225422074
 40
0.1362199225422074
 40
0.1362199225422074
 40
0.1362199225422074
 10
11.4795568707
 20
9.868392746499999
 30
0.0
 10
11.48114409384103
 20
9.870707692740786
 30
0.0
 10
11.50682126653049
 20
9.908157546422273
 30
0.0
 10
11.53100266234067
 20
9.946602463690604
 30
0.0
 10
11.5536892958
 20
9.9826709253
 30
0.0
 11
11.4795568707
 21
9.868392746499999
 31
0.0
 11
11.4843128247
 21
9.8753413874
 31
0.0
 11
11.5536892958
 21
9.9826709253
 31
0.0
  0
SPLINE
  5
6B
330
2
100
AcDbEntity
  8
0
100
AcDbSpline
210
0.0
220
0.0
230
1.0
 70
    24
 71
     3
 72
     8
 73
     4
 74
     2
 42
0.0000000001
 43
0.0000000001
 44
0.0000000001
 40
0.0
 40
0.0
 40
0.0
 40
0.0
 40
0.0891424518721531
 40
0.0891424518721531
 40
0.0891424518721531
 40
0.0891424518721531
 10
11.2072519548
 20
9.560416977199999
 30
0.0
 10
11.22955372796667
 20
9.580052701299999
 30
0.0
 10
11.25185550113333
 20
9.5996884254
 30
0.0
 10
11.2741572743
 20
9.6193241495
 30
0.0
 11
11.2072519548
 21
9.560416977199999
 31
0.0
 11
11.2741572743
 21
9.6193241495
 31
0.0
  0
SPLINE
  5
6C
330
2
100
AcDbEntity
  8
0
100
AcDbSpline
210
0.0
220
0.0
230
1.0
 70
    24
 71
     3
 72
     8
 73
     4
 74
     2
 42
0.0000000001
 43
0.0000000001
 44
0.0000000001
 40
0.0
 40
0.0
 40
0.0
 40
0.0
 40
0.0772110004129984
 40
0.0772110004129984
 40
0.0772110004129984
 40
0.0772110004129984
 10
11.2741572743
 20
9.6193241495
 30
0.0
 10
11.29205927626666
 20
9.637814998633334
 30
0.0
 10
11.30996127823333
 20
9.656305847766667
 30
0.0
 10
11.3278632802
 20
9.674796696899999
 30
0.0
 11
11.2741572743
 21
9.6193241495
 31
0.0
 11
11.3278632802
 21
9.674796696899999
 31
0.0
  0
SPLINE
  5
6D
330
2
100
AcDbEntity
  8
0
100
AcDbSpline
210
0.0
220
0.0
230
1.0
 70
     8
 71
     3
 72
    12
 73
     8
 74
     6
 42
0.0000000001
 43
0.0000000001
 44
0.0000000001
 40
0.0
 40
0.0
 40
0.0
 40
0.0
 40
0.02394632030004
 40
0.0458772534000767
 40
0.0631248767000761
 40
0.0743744284001865
 40
0.0780000000005819
 40
0.0780000000005819
 40
0.0780000000005819
 40
0.0780000000005819
 10
12.9436157518
 20
11.3177215815
 30
0.0
 10
12.95159785856666
 20
11.31772156012266
 30
0.0
 10
12.96689027636665
 20
11.31772151916716
 30
0.0
 10
12.98793190193337
 20
11.31772156650797
 30
0.0
 10
13.00474127129989
 20
11.31772163669507
 30
0.0
 10
13.01544885350045
 20
11.31772147417528
 30
0.0
 10
13.02040722793335
 20
11.31772156046763
 30
0.0
 10
13.0216157518
 20
11.3177215815
 30
0.0
 11
12.9436157518
 21
11.3177215815
 31
0.0
 11
12.9675620721
 21
11.3177215379
 31
0.0
 11
12.9894930052
 21
11.3177215779
 31
0.0
 11
13.0067406285
 21
11.3177215777
 31
0.0
 11
13.0179901802
 21
11.317721528
 31
0.0
 11
13.0216157518
 21
11.3177215815
 31
0.0
  0
SPLINE
  5
6E
330
2
100
AcDbEntity
  8
0
100
AcDbSpline
210
0.0
220
0.0
230
1.0
 70
     8
 71
     3
 72
     9
 73
     5
 74
     3
 42
0.0000000001
 43
0.0000000001
 44
0.0000000001
 40
0.0
 40
0.0
 40
0.0
 40
0.0
 40
0.0117824650792323
 40
0.033993167020039
 40
0.033993167020039
 40
0.033993167020039
 40
0.033993167020039
 10
9.417495604499999
 20
9.4364665767
 30
0.0
 10
9.421445072518249
 20
9.436290319206428
 30
0.0
 10
9.432839540915303
 20
9.43578180503921
 30
0.0
 10
9.443304088514592
 20
9.431037448243168
 30
0.0
 10
9.4501414905
 20
9.427937546
 30
0.0
 11
9.417495604499999
 21
9.4364665767
 31
0.0
 11
9.429232287499999
 21
9.4354289084
 31
0.0
 11
9.4501414905
 21
9.427937546
 31
0.0
  0
SPLINE
  5
6F
330
2
100
AcDbEntity
  8
0
100
AcDbSpline
210
0.0
220
0.0
230
1.0
 70
     8
 71
     3
 72
     9
 73
     5
 74
     3
 42
0.0000000001
 43
0.0000000001
 44
0.0000000001
 40
0.0
 40
0.0
 40
0.0
 40
0.0
 40
0.0004093461383555
 40
0.0149597520511184
 40
0.0149597520511184
 40
0.0149597520511184
 40
0.0149597520511184
 10
9.4501414905
 20
9.427937546
 30
0.0
 10
9.450260378108994
 20
9.427870558763737
 30
0.0
 10
9.454605183118461
 20
9.42542247790697
 30
0.0
 10
9.458492652133985
 20
9.422262815879463
 30
0.0
 10
9.462273747699999
 20
9.4191896122
 30
0.0
 11
9.4501414905
 21
9.427937546
 31
0.0
 11
9.450497810899999
 21
9.4277360515
 31
0.0
 11
9.462273747699999
 21
9.4191896122
 31
0.0
  0
SPLINE
  5
70
330
2
100
AcDbEntity
  8
0
100
AcDbSpline
210
0.0
220
0.0
230
1.0
 70
    24
 71
     3
 72
     8
 73
     4
 74
     2
 42
0.0000000001
 43
0.0000000001
 44
0.0000000001
 40
0.0
 40
0.0
 40
0.0
 40
0.0
 40
0.0096120126279294
 40
0.0096120126279294
 40
0.0096120126279294
 40
0.0096120126279294
 10
11.7248853868
 20
9.4364715778
 30
0.0
 10
11.7280892775
 20
9.436498547333332
 30
0.0
 10
11.7312931682
 20
9.436525516866666
 30
0.0
 10
11.7344970589
 20
9.4365524864
 30
0.0
 11
11.7248853868
 21
9.4364715778
 31
0.0
 11
11.7344970589
 21
9.4365524864
 31
0.0
  0
SPLINE
  5
71
330
2
100
AcDbEntity
  8
0
100
AcDbSpline
210
0.0
220
0.0
230
1.0
 70
     8
 71
     3
 72
    28
 73
    24
 74
    22
 42
0.0000000001
 43
0.0000000001
 44
0.0000000001
 40
0.0
 40
0.0
 40
0.0
 40
0.0
 40
0.009002362330427
 40
0.0174731698034424
 40
0.025481540385776
 40
0.0330375566554382
 40
0.0400873281350947
 40
0.0466342104828768
 40
0.0528479303150139
 40
0.058971069842581
 40
0.0652459929285891
 40
0.0719778035146271
 40
0.0796342547510387
 40
0.0889659816247194
 40
0.1001182596540122
 40
0.1113119603154702
 40
0.1214577883525203
 40
0.1309977736573219
 40
0.1404573283320516
 40
0.1499447951294816
 40
0.1595112726044026
 40
0.1692561499563252
 40
0.1746110953198396
 40
0.1746110953198396
 40
0.1746110953198396
 40
0.1746110953198396
 10
11.7344970589
 20
9.4365524864
 30
0.0
 10
11.73749735842997
 20
9.436609987298448
 30
0.0
 10
11.74332080134685
 20
9.436721593888533
 30
0.0
 10
11.75180857640796
 20
9.437058811628244
 30
0.0
 10
11.75980730134915
 20
9.437523672319546
 30
0.0
 10
11.76732193328395
 20
9.438126019721885
 30
0.0
 10
11.77433560719175
 20
9.438856420033454
 30
0.0
 10
11.78088466709791
 20
9.439708184603427
 30
0.0
 10
11.78710279441851
 20
9.440691978143281
 30
0.0
 10
11.79319786779693
 20
9.441855427390866
 30
0.0
 10
11.79941391228094
 20
9.443285436763353
 30
0.0
 10
11.80605017479183
 20
9.445141007068983
 30
0.0
 10
11.8135277802568
 20
9.447729573213782
 30
0.0
 10
11.82210716333548
 20
9.451564465730907
 30
0.0
 10
11.83113981020626
 20
9.457115278351624
 30
0.0
 10
11.83940033746779
 20
9.4641825134875
 30
0.0
 10
11.84630956262622
 20
9.471841196570307
 30
0.0
 10
11.85204808316454
 20
9.479697219537284
 30
0.0
 10
11.85700087344804
 20
9.487809088787894
 30
0.0
 10
11.8613975942591
 20
9.496242142345728
 30
0.0
 10
11.86536693988779
 20
9.504986400010446
 30
0.0
 10
11.86845340125427
 20
9.512609749047991
 30
0.0
 10
11.87020273362751
 20
9.517329324050647
 30
0.0
 10
11.8708231104
 20
9.5190030567
 30
0.0
 11
11.7344970589
 21
9.4365524864
 31
0.0
 11
11.7434971037
 21
9.4367567439
 31
0.0
 11
11.7519612931
 21
9.437091522999999
 31
0.0
 11
11.7599558036
 21
9.4375624808
 31
0.0
 11
11.7674873282
 21
9.438170361599999
 31
0.0
 11
11.7744987461
 21
9.43890473
 31
0.0
 11
11.7809904308
 21
9.439753080299999
 31
0.0
 11
11.7871269876
 21
9.4407292897
 31
0.0
 11
11.7931404631
 21
9.4418829578
 31
0.0
 11
11.7992540221
 21
9.4432968376
 31
0.0
 11
11.8057345724
 21
9.4451188534
 31
0.0
 11
11.8129638822
 21
9.447640425399999
 31
0.0
 11
11.8214682214
 21
9.4514819539
 31
0.0
 11
11.8309559715
 21
9.457343344799999
 31
0.0
 11
11.8394877366
 21
9.4645895796
 31
0.0
 11
11.8463046939
 21
9.472104027
 31
0.0
 11
11.8519535934
 21
9.479791760999999
 31
0.0
 11
11.8569031536
 21
9.487853090199999
 31
0.0
 11
11.8613080888
 21
9.496255980899999
 31
0.0
 11
11.8652821581
 21
9.504957949899999
 31
0.0
 11
11.8689443616
 21
9.5139885036
 31
0.0
 11
11.8708231104
 21
9.5190030567
 31
0.0
  0
SPLINE
  5
72
330
2
100
AcDbEntity
  8
0
100
AcDbSpline
210
0.0
220
0.0
230
1.0
 70
     8
 71
     3
 72
    30
 73
    26
 74
    24
 42
0.0000000001
 43
0.0000000001
 44
0.0000000001
 40
0.0
 40
0.0
 40
0.0
 40
0.0
 40
0.0001790052727796
 40
0.0004162411760844
 40
0.0011258283673328
 40
0.0029569926838582
 40
0.0055144956918221
 40
0.0083952450237338
 40
0.011355938893952
 40
0.0143765433495956
 40
0.0174554468239136
 40
0.0205911372662152
 40
0.0237819260513907
 40
0.0270260274256074
 40
0.0303216095024307
 40
0.0336669883242351
 40
0.0370609941229231
 40
0.0405021735089205
 40
0.0439890486818927
 40
0.0475201415538847
 40
0.0510939742320719
 40
0.0547090684396654
 40
0.058363945759319
 40
0.0620571274768039
 40
0.0643560550307237
 40
0.0643560550307237
 40
0.0643560550307237
 40
0.0643560550307237
 10
7.9919820995
 20
10.0677215412
 30
0.0
 10
7.99204176735107
 20
10.06772127964156
 30
0.0
 10
7.992180513076924
 20
10.0677206714394
 30
0.0
 10
7.992555781891291
 20
10.06771821145046
 30
0.0
 10
7.993481697591952
 20
10.06770472647622
 30
0.0
 10
7.995180338706608
 20
10.06764568659958
 30
0.0
 10
7.997598243109266
 20
10.06747635731064
 30
0.0
 10
8.000380899360308
 20
10.06715941924069
 30
0.0
 10
8.003298203785261
 20
10.06668817542239
 30
0.0
 10
8.006254324630271
 20
10.06606426605896
 30
0.0
 10
8.00923297664627
 20
10.06528206022973
 30
0.0
 10
8.012223221630318
 20
10.06433563938137
 30
0.0
 10
8.01521340928414
 20
10.06321986130161
 30
0.0
 10
8.018191188437615
 20
10.0619304745248
 30
0.0
 10
8.02114367273765
 20
10.06046416354085
 30
0.0
 10
8.024057686721068
 20
10.05881851245316
 30
0.0
 10
8.026919742543686
 20
10.05699205422859
 30
0.0
 10
8.02971605697685
 20
10.05498433603466
 30
0.0
 10
8.032432469032173
 20
10.0527960584929
 30
0.0
 10
8.03505471649702
 20
10.05042913405261
 30
0.0
 10
8.037568149279772
 20
10.04788649320481
 30
0.0
 10
8.039959313384464
 20
10.04517296820297
 30
0.0
 10
8.042210433553993
 20
10.04229206112093
 30
0.0
 10
8.04404822799843
 20
10.0396501860986
 30
0.0
 10
8.045092042583002
 20
10.0379470365206
 30
0.0
 10
8.045492511599999
 20
10.0372936076
 30
0.0
 11
7.9919820995
 21
10.0677215412
 31
0.0
 11
7.992161102799999
 21
10.0677207008
 31
0.0
 11
7.992398333199999
 21
10.0677190849
 31
0.0
 11
7.9931078464
 21
10.0677088379
 31
0.0
 11
7.9949379028
 21
10.0676451486
 31
0.0
 11
7.997489159799999
 21
10.0674665167
 31
0.0
 11
8.000351401999999
 21
10.0671405009
 31
0.0
 11
8.0032742092
 21
10.0666683714
 31
0.0
 11
8.0062297043
 21
10.0660445926
 31
0.0
 11
8.009207638999999
 21
10.065262575
 31
0.0
 11
8.012197165899999
 21
10.0643163808
 31
0.0
 11
8.0151866121
 21
10.0632008789
 31
0.0
 11
8.0181636142
 21
10.061911828
 31
0.0
 11
8.021115232799999
 21
10.0604459464
 31
0.0
 11
8.024028194399999
 21
10.0588008889
 31
0.0
 11
8.0268892523
 21
10.0569750677
 31
0.0
 11
8.0296845509
 21
10.0549680746
 31
0.0
 11
8.0323999477
 21
10.0527806289
 31
0.0
 11
8.0350211251
 21
10.0504146099
 31
0.0
 11
8.037533687299999
 21
10.0478730924
 31
0.0
 11
8.0399232621
 21
10.0451603745
 31
0.0
 11
8.0421756076
 21
10.0422819951
 31
0.0
 11
8.044276722299999
 21
10.0392447417
 31
0.0
 11
8.045492511599999
 21
10.0372936076
 31
0.0
  0
SPLINE
  5
73
330
2
100
AcDbEntity
  8
0
100
AcDbSpline
210
0.0
220
0.0
230
1.0
 70
     8
 71
     3
 72
    12
 73
     8
 74
     6
 42
0.0000000001
 43
0.0000000001
 44
0.0000000001
 40
0.0
 40
0.0
 40
0.0
 40
0.0
 40
0.0198469423455203
 40
0.0396940290022153
 40
0.0595412534928682
 40
0.0793886240389081
 40
0.0860415422555103
 40
0.0860415422555103
 40
0.0860415422555103
 40
0.0860415422555103
 10
7.565064197799999
 20
10.0677215815
 30
0.0
 10
7.57170666607528
 20
10.06710477036795
 30
0.0
 10
7.584991650924584
 20
10.0658711436189
 30
0.0
 10
7.60292572059836
 20
10.05621536446459
 30
0.0
 10
7.616977272372585
 20
10.04187163568536
 30
0.0
 10
7.624028241812748
 20
10.02772956224696
 30
0.0
 10
7.625964654244714
 20
10.0191074029371
 30
0.0
 10
7.626450792099999
 20
10.0169428031
 30
0.0
 11
7.565064197799999
 21
10.0677215815
 31
0.0
 11
7.584659359899999
 21
10.0645702734
 31
0.0
 11
7.602278578099999
 21
10.0554340817
 31
0.0
 11
7.6161450213
 21
10.0412342904
 31
0.0
 11
7.624860328799999
 21
10.0234028145
 31
0.0
 11
7.626450792099999
 21
10.0169428031
 31
0.0
  0
SPLINE
  5
74
330
2
100
AcDbEntity
  8
0
100
AcDbSpline
210
0.0
220
0.0
230
1.0
 70
     8
 71
     3
 72
    77
 73
    73
 74
    71
 42
0.0000000001
 43
0.0000000001
 44
0.0000000001
 40
0.0
 40
0.0
 40
0.0
 40
0.0
 40
0.0008482491321051
 40
0.001892856223569
 40
0.0028549549296599
 40
0.0037254150774384
 40
0.0044968910377866
 40
0.0051635181282834
 40
0.0057206996825809
 40
0.0061649543774011
 40
0.006493799199078
 40
0.0067056467870609
 40
0.0070346386879683
 40
0.0074079901654458
 40
0.0078955317687086
 40
0.0084959578166183
 40
0.00918899495767
 40
0.0098711844110936
 40
0.0105258498505551
 40
0.0111530115299663
 40
0.0117527152112553
 40
0.0123250294357426
 40
0.0128700411210364
 40
0.0133878508332323
 40
0.0138785673914169
 40
0.0143423007237677
 40
0.0147791542970358
 40
0.0151892164380587
 40
0.0155725500853669
 40
0.015929181893449
 40
0.0162590901827561
 40
0.0165621916478992
 40
0.0168383275928539
 40
0.0170872499331565
 40
0.0173086062358013
 40
0.0175019261091046
 40
0.0176666089314664
 40
0.0178019138459664
 40
0.0179806956727061
 40
0.0181260105714872
 40
0.0182676428387721
 40
0.018449915726359
 40
0.0186663405997758
 40
0.0188834387132835
 40
0.0190968088225073
 40
0.0193061013513072
 40
0.0195109861078113
 40
0.0197111563849357
 40
0.0199063225691904
 40
0.0200962104255704
 40
0.0202805611162543
 40
0.0204591295885333
 40
0.0206316842879905
 40
0.020798005652899
 40
0.020957885717917
 40
0.0211111272113656
 40
0.02125754257349
 40
0.021396953436336
 40
0.0215291895387626
 40
0.0216540883236736
 40
0.0218812574470564
 40
0.0220772844156634
 40
0.0222410680229311
 40
0.0223715579612236
 40
0.0225026194580817
 40
0.0226501545402851
 40
0.0227858173502062
 40
0.0229204166426158
 40
0.0230545376733455
 40
0.0231888787497479
 40
0.0233242910410751
 40
0.0234617075318994
 40
0.0234617075318994
 40
0.0234617075318994
 40
0.0234617075318994
 10
8.723352209199999
 20
9.436527576899999
 30
0.0
 10
8.723069673668796
 20
9.436538541768111
 30
0.0
 10
8.72243919953286
 20
9.436563009719872
 30
0.0
 10
8.721488345313634
 20
9.436602738136144
 30
0.0
 10
8.720530330855673
 20
9.436645034967604
 30
0.0
 10
8.719662909588972
 20
9.436685392970582
 30
0.0
 10
8.718895374153632
 20
9.436722689217347
 30
0.0
 10
8.718227890678567
 20
9.436756372457496
 30
0.0
 10
8.717681838224644
 20
9.436784739584277
 30
0.0
 10
8.717214530305851
 20
9.436809691949084
 30
0.0
 10
8.716945076823765
 20
9.436824260709839
 30
0.0
 10
8.71650015795914
 20
9.436848774969821
 30
0.0
 10
8.717066415308257
 20
9.436817582572839
 30
0.0
 10
8.717367169373472
 20
9.436801457039216
 30
0.0
 10
8.717889388563813
 20
9.436773727343162
 30
0.0
 10
8.718469239484834
 20
9.43674387592409
 30
0.0
 10
8.719131212939753
 20
9.436710801150976
 30
0.0
 10
8.719805897186024
 20
9.436678296088997
 30
0.0
 10
8.72046015826098
 20
9.436647870224476
 30
0.0
 10
8.721086630582567
 20
9.436619754557554
 30
0.0
 10
8.721685813726935
 20
9.436593791764741
 30
0.0
 10
8.722257651926645
 20
9.436569860322792
 30
0.0
 10
8.722802253353764
 20
9.436547837310474
 30
0.0
 10
8.723319703855667
 20
9.436527606262453
 30
0.0
 10
8.723810106575323
 20
9.436509056992498
 30
0.0
 10
8.724273563809877
 20
9.436492085086708
 30
0.0
 10
8.724710172196857
 20
9.436476592179275
 30
0.0
 10
8.725120012492109
 20
9.436462487065115
 30
0.0
 10
8.725503142063276
 20
9.436449684174679
 30
0.0
 10
8.725859575898279
 20
9.436438105959808
 30
0.0
 10
8.72618930095313
 20
9.436427680445429
 30
0.0
 10
8.726492175237739
 20
9.436418345386524
 30
0.0
 10
8.726768202486201
 20
9.436410039227945
 30
0.0
 10
8.727016583870089
 20
9.436402728288765
 30
0.0
 10
8.727238679569126
 20
9.436396324777744
 30
0.0
 10
8.727428713052642
 20
9.436390938928543
 30
0.0
 10
8.727601910189777
 20
9.436386120478035
 30
0.0
 10
8.727732458987697
 20
9.436382513652393
 30
0.0
 10
8.72801366514572
 20
9.43637491893237
 30
0.0
 10
8.727755455396094
 20
9.436381893635118
 30
0.0
 10
8.727625574340546
 20
9.436385475041259
 30
0.0
 10
8.72743623340423
 20
9.436390744377767
 30
0.0
 10
8.727234206034191
 20
9.436396484919214
 30
0.0
 10
8.7270177733131
 20
9.436402748599469
 30
0.0
 10
8.726804846864354
 20
9.436409031470232
 30
0.0
 10
8.726595697740087
 20
9.436415316076043
 30
0.0
 10
8.726391026761653
 20
9.436421575851859
 30
0.0
 10
8.726191045641272
 20
9.436427796582711
 30
0.0
 10
8.725996069358425
 20
9.436433961515563
 30
0.0
 10
8.725806365311896
 20
9.436440054091319
 30
0.0
 10
8.725622194215121
 20
9.436446058358519
 30
0.0
 10
8.725443800437226
 20
9.436451958068246
 30
0.0
 10
8.725271415764563
 20
9.436457737615974
 30
0.0
 10
8.725105259601136
 20
9.436463381432114
 30
0.0
 10
8.724945539498822
 20
9.436468874431945
 30
0.0
 10
8.72479245393778
 20
9.436474201342914
 30
0.0
 10
8.724646185892307
 20
9.436479348288484
 30
0.0
 10
8.72450692903633
 20
9.436484300290109
 30
0.0
 10
8.724374800467
 20
9.436489045777474
 30
0.0
 10
8.724213612682834
 20
9.436494888592823
 30
0.0
 10
8.724030126759227
 20
9.436501626345538
 30
0.0
 10
8.723837700005621
 20
9.436508792640509
 30
0.0
 10
8.723665615406787
 20
9.436515295123419
 30
0.0
 10
8.723549274112905
 20
9.436519716932371
 30
0.0
 10
8.723319019548869
 20
9.436528594085329
 30
0.0
 10
8.723565169934225
 20
9.436519100415509
 30
0.0
 10
8.72367661288499
 20
9.436514866164158
 30
0.0
 10
8.723818467776192
 20
9.436509499540441
 30
0.0
 10
8.723950821157842
 20
9.436504545670622
 30
0.0
 10
8.724085864541521
 20
9.436499534944204
 30
0.0
 10
8.724221360098784
 20
9.436494551893584
 30
0.0
 10
8.724312261445911
 20
9.43649124898558
 30
0.0
 10
8.724358046
 20
9.4364895854
 30
0.0
 11
8.723352209199999
 21
9.436527576899999
 31
0.0
 11
8.722504612799999
 21
9.436560847499999
 31
0.0
 11
8.721460910399999
 21
9.4366043133
 31
0.0
 11
8.7204997496
 21
9.4366467849
 31
0.0
 11
8.719630229599999
 21
9.4366872304
 31
0.0
 11
8.718859663299999
 21
9.436724683499999
 31
0.0
 11
8.718193882599999
 21
9.436758265299999
 31
0.0
 11
8.717637453
 21
9.436787202899999
 31
0.0
 11
8.717193827799999
 21
9.4368108443
 31
0.0
 11
8.716865466499999
 21
9.4368286705
 31
0.0
 11
8.7166539385
 21
9.4368403026
 31
0.0
 11
8.7169824356
 21
9.4368222658
 31
0.0
 11
8.7173552435
 21
9.436802126399999
 31
0.0
 11
8.7178421034
 21
9.4367763533
 31
0.0
 11
8.7184417328
 21
9.4367454337
 31
0.0
 11
8.719133907699999
 21
9.436710873799999
 31
0.0
 11
8.719815306399999
 21
9.4366780369
 31
0.0
 11
8.7204692652
 21
9.436647627599999
 31
0.0
 11
8.7210957962
 21
9.436619508599999
 31
0.0
 11
8.7216949377
 21
9.436593547699999
 31
0.0
 11
8.722266751399999
 21
9.436569617299999
 31
0.0
 11
8.722811317999999
 21
9.4365475956
 31
0.0
 11
8.7233287324
 21
9.436527365999999
 31
0.0
 11
8.723819098299999
 21
9.4365088181
 31
0.0
 11
8.724282520999999
 21
9.436491847399999
 31
0.0
 11
8.724719099799999
 21
9.436476355599999
 31
0.0
 11
8.725128919299999
 21
9.4364622511
 31
0.0
 11
8.725512039099999
 21
9.436449448599999
 31
0.0
 11
8.725868482899999
 21
9.43643787
 31
0.0
 11
8.726198226399999
 21
9.436427443899999
 31
0.0
 11
8.726501183999999
 21
9.436418106299999
 31
0.0
 11
8.726777195
 21
9.436409800399999
 31
0.0
 11
8.727026009599999
 21
9.436402477399999
 31
0.0
 11
8.727247273899999
 21
9.436396095999999
 31
0.0
 11
8.727440516299999
 21
9.436390623499999
 31
0.0
 11
8.727605135199999
 21
9.436386035499999
 31
0.0
 11
8.727740388999999
 21
9.436382316699999
 31
0.0
 11
8.727919105199999
 21
9.436377473
 31
0.0
 11
8.727773843599999
 21
9.4363814084
 31
0.0
 11
8.7276322647
 21
9.436385296099999
 31
0.0
 11
8.727450062599999
 21
9.4363903755
 31
0.0
 11
8.727233724899999
 21
9.4363965176
 31
0.0
 11
8.727016717699999
 21
9.436402799799999
 31
0.0
 11
8.726803440399999
 21
9.436409092399999
 31
0.0
 11
8.726594242299999
 21
9.436415378699999
 31
0.0
 11
8.726389453299999
 21
9.436421642
 31
0.0
 11
8.726189379799999
 21
9.4364278657
 31
0.0
 11
8.725994311099999
 21
9.436434033499999
 31
0.0
 11
8.7258045211
 21
9.436440128899999
 31
0.0
 11
8.7256202683
 21
9.4364461358
 31
0.0
 11
8.7254417974
 21
9.4364520381
 31
0.0
 11
8.7252693396
 21
9.436457820099999
 31
0.0
 11
8.725103114099999
 21
9.436463466299999
 31
0.0
 11
8.7249433285
 21
9.436468961499999
 31
0.0
 11
8.724790179699999
 21
9.436474290699999
 31
0.0
 11
8.7246438549
 21
9.436479439599999
 31
0.0
 11
8.724504532099999
 21
9.436484394
 31
0.0
 11
8.7243723812
 21
9.4364891402
 31
0.0
 11
8.7242475644
 21
9.4364936649
 31
0.0
 11
8.7240205482
 21
9.4365019989
 31
0.0
 11
8.723824657199999
 21
9.4365092988
 31
0.0
 11
8.7236609901
 21
9.4365154754
 31
0.0
 11
8.723530594899999
 21
9.436520446899999
 31
0.0
 11
8.723399630299999
 21
9.4365254857
 31
0.0
 11
8.723547056199999
 21
9.4365198108
 31
0.0
 11
8.723682620499999
 21
9.4365146418
 31
0.0
 11
8.723817123799999
 21
9.436509559299999
 31
0.0
 11
8.723951150899999
 21
9.436504540599999
 31
0.0
 11
8.724085399599999
 21
9.436499559499999
 31
0.0
 11
8.724220720499999
 21
9.4364945853
 31
0.0
 11
8.724358046
 21
9.4364895854
 31
0.0
  0
SPLINE
  5
75
330
2
100
AcDbEntity
  8
0
100
AcDbSpline
210
0.0
220
0.0
230
1.0
 70
     8
 71
     3
 72
    11
 73
     7
 74
     5
 42
0.0000000001
 43
0.0000000001
 44
0.0000000001
 40
0.0
 40
0.0
 40
0.0
 40
0.0
 40
0.000140160002321
 40
0.0002839478801421
 40
0.0004332813845028
 40
0.000506312233817
 40
0.000506312233817
 40
0.000506312233817
 40
0.000506312233817
 10
8.724358046
 20
9.4364895854
 30
0.0
 10
8.724404735538195
 20
9.436487898525188
 30
0.0
 10
8.72449932311793
 20
9.43648448111281
 30
0.0
 10
8.724643658489815
 20
9.43647933358304
 30
0.0
 10
8.724765633136295
 20
9.436475024232937
 30
0.0
 10
8.724839709267847
 20
9.436472432650283
 30
0.0
 10
8.724864037999999
 20
9.436471581499999
 30
0.0
 11
8.724358046
 21
9.4364895854
 31
0.0
 11
8.724498114999999
 21
9.436484535499999
 31
0.0
 11
8.724641811399999
 21
9.4364794073
 31
0.0
 11
8.7247910519
 21
9.436474137699999
 31
0.0
 11
8.724864037999999
 21
9.436471581499999
 31
0.0
  0
SPLINE
  5
76
330
2
100
AcDbEntity
  8
0
100
AcDbSpline
210
0.0
220
0.0
230
1.0
 70
     8
 71
     3
 72
    75
 73
    71
 74
    69
 42
0.0000000001
 43
0.0000000001
 44
0.0000000001
 40
0.0
 40
0.0
 40
0.0
 40
0.0
 40
0.0009363008571875
 40
0.0048578506246554
 40
0.0086893287639847
 40
0.01242389058672
 40
0.0160567337237841
 40
0.0195840994198209
 40
0.0230022186856065
 40
0.0263052928478294
 40
0.0294795244381484
 40
0.0324805684497835
 40
0.0350974218162198
 40
0.0368504412783127
 40
0.0370496593201541
 40
0.0384888880243094
 40
0.0408417682160893
 40
0.04357165134958
 40
0.0464410063725955
 40
0.0494214307156607
 40
0.0525014743111715
 40
0.055678357425675
 40
0.0589227657255922
 40
0.0622098608861862
 40
0.0655410981680562
 40
0.0689203047651403
 40
0.0723540280697797
 40
0.0758521922589585
 40
0.0794087778939803
 40
0.082986070631021
 40
0.0864657310631543
 40
0.0894105391114626
 40
0.0912834725325979
 40
0.0919684563547859
 40
0.0925460602172585
 40
0.0934084430451908
 40
0.0943931623446563
 40
0.0954856325908408
 40
0.0966639113284192
 40
0.0978955326928549
 40
0.0991479606820439
 40
0.1003932428726842
 40
0.1016091585793947
 40
0.1027819766694561
 40
0.1038977517731048
 40
0.1049423588645687
 40
0.1059044575706597
 40
0.1067749177184381
 40
0.1075463936787863
 40
0.1082130207692831
 40
0.1087702023235807
 40
0.1092144570184008
 40
0.1095433018400778
 40
0.1097551494280607
 40
0.110084141328968
 40
0.1104574928064455
 40
0.1109450344097083
 40
0.111545460457618
 40
0.1122384975986697
 40
0.1129206870520933
 40
0.1135753524915548
 40
0.114202514170966
 40
0.114802217852255
 40
0.1153745320767423
 40
0.1159195437620361
 40
0.116437353474232
 40
0.1169280700324166
 40
0.1173918033647674
 40
0.1178286569380355
 40
0.1179660836873582
 40
0.1179660836873582
 40
0.1179660836873582
 40
0.1179660836873582
 10
8.7165718033
 20
9.436842398399999
 30
0.0
 10
8.716260179609525
 20
9.436859640315665
 30
0.0
 10
8.714643368807944
 20
9.43694909729966
 30
0.0
 10
8.711752426115308
 20
9.437128421535675
 30
0.0
 10
8.707932908790944
 20
9.437401295278242
 30
0.0
 10
8.704212095845328
 20
9.437702758559138
 30
0.0
 10
8.700595127960523
 20
9.438029353863859
 30
0.0
 10
8.697086405595344
 20
9.438377999349334
 30
0.0
 10
8.693689454501347
 20
9.438745549757133
 30
0.0
 10
8.6904151257906
 20
9.439127816119938
 30
0.0
 10
8.687273315346212
 20
9.43952086126195
 30
0.0
 10
8.684390810416655
 20
9.439903805770878
 30
0.0
 10
8.681891979585738
 20
9.440254697155747
 30
0.0
 10
8.680507224017235
 20
9.440456318054025
 30
0.0
 10
8.679230467122636
 20
9.440645788143497
 30
0.0
 10
8.682084685409309
 20
9.440223919376231
 30
0.0
 10
8.683361929134564
 20
9.44004842302078
 30
0.0
 10
8.686299931485979
 20
9.439646341219146
 30
0.0
 10
8.689044220896763
 20
9.439296158775064
 30
0.0
 10
8.692025639185835
 20
9.438935246864376
 30
0.0
 10
8.695077886467203
 20
9.438590387485518
 30
0.0
 10
8.69822975889032
 20
9.438259035207048
 30
0.0
 10
8.701450247852356
 20
9.437946876830865
 30
0.0
 10
8.704725186937228
 20
9.437656517707299
 30
0.0
 10
8.708046970084522
 20
9.437389803611498
 30
0.0
 10
8.711419853224954
 20
9.437147514398988
 30
0.0
 10
8.714849552735003
 20
9.436930457832023
 30
0.0
 10
8.718342509379251
 20
9.436739816393382
 30
0.0
 10
8.721875404280108
 20
9.436577724334581
 30
0.0
 10
8.725438691476881
 20
9.436446812712789
 30
0.0
 10
8.728675309901751
 20
9.43635378347052
 30
0.0
 10
8.73170980354342
 20
9.436294813957882
 30
0.0
 10
8.733019575296317
 20
9.436273903581767
 30
0.0
 10
8.734777316718151
 20
9.436254643155194
 30
0.0
 10
8.733636268263644
 20
9.436267108725616
 30
0.0
 10
8.732992369236301
 20
9.436275894290371
 30
0.0
 10
8.731955503942563
 20
9.436291472595499
 30
0.0
 10
8.730888420924559
 20
9.436310676467416
 30
0.0
 10
8.729715833191168
 20
9.436334891948488
 30
0.0
 10
8.728496944622644
 20
9.436363803651458
 30
0.0
 10
8.727253851649148
 20
9.43639711990491
 30
0.0
 10
8.726016642222006
 20
9.436434157027051
 30
0.0
 10
8.724805932892975
 20
9.43647413813426
 30
0.0
 10
8.723638523700376
 20
9.436516198263511
 30
0.0
 10
8.722528303606658
 20
9.436559401371013
 30
0.0
 10
8.721488344485232
 20
9.436602710842066
 30
0.0
 10
8.720530331048117
 20
9.436645041308308
 30
0.0
 10
8.71966290954559
 20
9.436685391541098
 30
0.0
 10
8.718895374163061
 20
9.436722689528121
 30
0.0
 10
8.718227890676612
 20
9.436756372393029
 30
0.0
 10
8.717681838225026
 20
9.436784739596806
 30
0.0
 10
8.717214530305783
 20
9.436809691946891
 30
0.0
 10
8.716945076823774
 20
9.436824260710144
 30
0.0
 10
8.716500157959135
 20
9.43684877496971
 30
0.0
 10
8.717066415308261
 20
9.43681758257288
 30
0.0
 10
8.717367169373469
 20
9.4368014570392
 30
0.0
 10
8.717889388563815
 20
9.436773727343165
 30
0.0
 10
8.718469239484836
 20
9.436743875924101
 30
0.0
 10
8.719131212939752
 20
9.436710801150933
 30
0.0
 10
8.719805897186029
 20
9.436678296089139
 30
0.0
 10
8.72046015826096
 20
9.436647870223968
 30
0.0
 10
8.721086630582636
 20
9.436619754559327
 30
0.0
 10
8.721685813726693
 20
9.436593791758555
 30
0.0
 10
8.722257651927487
 20
9.436569860344299
 30
0.0
 10
8.722802253350838
 20
9.436547837235927
 30
0.0
 10
8.723319703865779
 20
9.436527606519907
 30
0.0
 10
8.723810106540538
 20
9.436509056106814
 30
0.0
 10
8.724273563929031
 20
9.43649208812047
 30
0.0
 10
8.724619350563072
 20
9.436479807385987
 30
0.0
 10
8.724810662229209
 20
9.436473169873668
 30
0.0
 10
8.7248564436
 20
9.436471581499999
 30
0.0
 11
8.7165718033
 21
9.436842398399999
 31
0.0
 11
8.7156369546
 21
9.436894525199999
 31
0.0
 11
8.711722874999999
 21
9.437136462099999
 31
0.0
 11
8.7079011549
 21
9.437409738899999
 31
0.0
 11
8.7041787872
 21
9.4377112861
 31
0.0
 11
8.700560666099999
 21
9.438038010699999
 31
0.0
 11
8.697050587499999
 21
9.4383868043
 31
0.0
 11
8.6936523012
 21
9.4387544856
 31
0.0
 11
8.690371517199999
 21
9.439137572099999
 31
0.0
 11
8.687221817699999
 21
9.4395314493
 31
0.0
 11
8.684246959699999
 21
9.439927031199999
 31
0.0
 11
8.681655453099999
 21
9.440290369999999
 31
0.0
 11
8.6799207854
 21
9.440543362499999
 31
0.0
 11
8.6797237244
 21
9.440572599299999
 31
0.0
 11
8.681147686299999
 21
9.4403635257
 31
0.0
 11
8.683477207299999
 21
9.440032803599999
 31
0.0
 11
8.6861823849
 21
9.439666366599999
 31
0.0
 11
8.689028415599999
 21
9.4393012536
 31
0.0
 11
8.691987325999999
 21
9.438943792399999
 31
0.0
 11
8.695047866799999
 21
9.438597730899999
 31
0.0
 11
8.6982073477
 21
9.438265666499999
 31
0.0
 11
8.7014366183
 21
9.437952622399999
 31
0.0
 11
8.704710869799999
 21
9.437662326499999
 31
0.0
 11
8.708031419999999
 21
9.437395702799999
 31
0.0
 11
8.7114019403
 21
9.437153566199999
 31
0.0
 11
8.7148288086
 21
9.4369367036
 31
0.0
 11
8.718321768699999
 21
9.436745961799999
 31
0.0
 11
8.7218746282
 21
9.436583201999999
 31
0.0
 11
8.7254494813
 21
9.4364511087
 31
0.0
 11
8.728927756799999
 21
9.436352944199999
 31
0.0
 11
8.731871957699999
 21
9.4362931487
 31
0.0
 11
8.7337446969
 21
9.4362661767
 31
0.0
 11
8.734429637099999
 21
9.4362584463
 31
0.0
 11
8.733852069499999
 21
9.436264918499999
 31
0.0
 11
8.7329897595
 21
9.436276125899999
 31
0.0
 11
8.732005155299999
 21
9.436291181399999
 31
0.0
 11
8.7309128595
 21
9.4363107038
 31
0.0
 11
8.7297348331
 21
9.436335087899999
 31
0.0
 11
8.728503557599999
 21
9.436364274
 31
0.0
 11
8.7272515794
 21
9.436397836699999
 31
0.0
 11
8.726006854799999
 21
9.436435098
 31
0.0
 11
8.724791601599999
 21
9.436475231099999
 31
0.0
 11
8.723619543999999
 21
9.436517459699999
 31
0.0
 11
8.722504612799999
 21
9.436560847499999
 31
0.0
 11
8.721460910399999
 21
9.4366043133
 31
0.0
 11
8.7204997496
 21
9.4366467849
 31
0.0
 11
8.719630229599999
 21
9.4366872304
 31
0.0
 11
8.718859663299999
 21
9.436724683499999
 31
0.0
 11
8.718193882599999
 21
9.436758265299999
 31
0.0
 11
8.717637453
 21
9.436787202899999
 31
0.0
 11
8.717193827799999
 21
9.4368108443
 31
0.0
 11
8.716865466499999
 21
9.4368286705
 31
0.0
 11
8.7166539385
 21
9.4368403026
 31
0.0
 11
8.7169824356
 21
9.4368222658
 31
0.0
 11
8.7173552435
 21
9.436802126399999
 31
0.0
 11
8.7178421034
 21
9.4367763533
 31
0.0
 11
8.7184417328
 21
9.4367454337
 31
0.0
 11
8.719133907699999
 21
9.436710873799999
 31
0.0
 11
8.719815306399999
 21
9.4366780369
 31
0.0
 11
8.7204692652
 21
9.436647627599999
 31
0.0
 11
8.7210957962
 21
9.436619508599999
 31
0.0
 11
8.7216949377
 21
9.436593547699999
 31
0.0
 11
8.722266751399999
 21
9.436569617299999
 31
0.0
 11
8.722811317999999
 21
9.4365475956
 31
0.0
 11
8.7233287324
 21
9.436527365999999
 31
0.0
 11
8.723819098299999
 21
9.4365088181
 31
0.0
 11
8.724282520999999
 21
9.436491847399999
 31
0.0
 11
8.724719099799999
 21
9.436476355599999
 31
0.0
 11
8.7248564436
 21
9.436471581499999
 31
0.0
  0
SPLINE
  5
77
330
2
100
AcDbEntity
  8
0
100
AcDbSpline
210
0.0
220
0.0
230
1.0
 70
     8
 71
     3
 72
    13
 73
     9
 74
     7
 42
0.0000000001
 43
0.0000000001
 44
0.0000000001
 40
0.0
 40
0.0
 40
0.0
 40
0.0
 40
0.0014787940199685
 40
0.0038316742117484
 40
0.0065615573452391
 40
0.0094309123682547
 40
0.0124113367113198
 40
0.0154913803068306
 40
0.0154913803068306
 40
0.0154913803068306
 40
0.0154913803068306
 10
8.679684609
 20
9.440578552599999
 30
0.0
 10
8.680172246871737
 20
9.440506502823833
 30
0.0
 10
8.681435755807108
 20
9.44031981606045
 30
0.0
 10
8.683601335804402
 20
9.440013028408941
 30
0.0
 10
8.686228031225807
 20
9.439656909421598
 30
0.0
 10
8.689064741176339
 20
9.439293387704339
 30
0.0
 10
8.692019747257798
 20
9.438935078182348
 30
0.0
 10
8.694027492812436
 20
9.438711405537636
 30
0.0
 10
8.695047866799999
 20
9.438597730899999
 30
0.0
 11
8.679684609
 21
9.440578552599999
 31
0.0
 11
8.681147686299999
 21
9.4403635257
 31
0.0
 11
8.683477207299999
 21
9.440032803599999
 31
0.0
 11
8.6861823849
 21
9.439666366599999
 31
0.0
 11
8.689028415599999
 21
9.4393012536
 31
0.0
 11
8.691987325999999
 21
9.438943792399999
 31
0.0
 11
8.695047866799999
 21
9.438597730899999
 31
0.0
  0
SPLINE
  5
78
330
2
100
AcDbEntity
  8
0
100
AcDbSpline
210
0.0
220
0.0
230
1.0
 70
     8
 71
     3
 72
    15
 73
    11
 74
     9
 42
0.0000000001
 43
0.0000000001
 44
0.0000000001
 40
0.0
 40
0.0
 40
0.0
 40
0.0
 40
0.0031768831145035
 40
0.0064212914144207
 40
0.0097083865750148
 40
0.0130396238568847
 40
0.0164188304539689
 40
0.0198525537586082
 40
0.0233507179477871
 40
0.0269073035828088
 40
0.0269073035828088
 40
0.0269073035828088
 40
0.0269073035828088
 10
8.695047866799999
 20
9.438597730899999
 30
0.0
 10
8.696100844568837
 20
9.438485266546173
 30
0.0
 10
8.698229181326251
 20
9.438257947389747
 30
0.0
 10
8.701450408032521
 20
9.437947176615761
 30
0.0
 10
8.704725136166238
 20
9.437656429859689
 30
0.0
 10
8.708047010606144
 20
9.437389850165724
 30
0.0
 10
8.711419740498175
 20
9.437147415710033
 30
0.0
 10
8.714849972655171
 20
9.436930813832358
 30
0.0
 10
8.718340902231931
 20
9.436738457179739
 30
0.0
 10
8.720690234485896
 20
9.43663523864931
 30
0.0
 10
8.7218746282
 20
9.436583201999999
 30
0.0
 11
8.695047866799999
 21
9.438597730899999
 31
0.0
 11
8.6982073477
 21
9.438265666499999
 31
0.0
 11
8.7014366183
 21
9.437952622399999
 31
0.0
 11
8.704710869799999
 21
9.437662326499999
 31
0.0
 11
8.708031419999999
 21
9.437395702799999
 31
0.0
 11
8.7114019403
 21
9.437153566199999
 31
0.0
 11
8.7148288086
 21
9.4369367036
 31
0.0
 11
8.718321768699999
 21
9.436745961799999
 31
0.0
 11
8.7218746282
 21
9.436583201999999
 31
0.0
  0
SPLINE
  5
79
330
2
100
AcDbEntity
  8
0
100
AcDbSpline
210
0.0
220
0.0
230
1.0
 70
     8
 71
     3
 72
    48
 73
    44
 74
    42
 42
0.0000000001
 43
0.0000000001
 44
0.0000000001
 40
0.0
 40
0.0
 40
0.0
 40
0.0
 40
0.0035772927370407
 40
0.007056953169174
 40
0.0100017612174823
 40
0.0118746946386176
 40
0.0125596784608056
 40
0.0131372823232782
 40
0.0139996651512105
 40
0.0149843844506761
 40
0.0160768546968605
 40
0.0172551334344389
 40
0.0184867547988746
 40
0.0197391827880637
 40
0.0209844649787039
 40
0.0222003806854144
 40
0.0233731987754759
 40
0.0244889738791246
 40
0.0255335809705885
 40
0.0264956796766794
 40
0.0273661398244579
 40
0.0281376157848061
 40
0.0288042428753029
 40
0.0293614244296004
 40
0.0298056791244206
 40
0.0301345239460975
 40
0.0303463715340804
 40
0.0306753634349878
 40
0.0310487149124653
 40
0.0315362565157281
 40
0.0321366825636378
 40
0.0328297197046895
 40
0.0335119091581131
 40
0.0341665745975745
 40
0.0347937362769858
 40
0.0353934399582748
 40
0.0359657541827621
 40
0.0365107658680559
 40
0.0370285755802518
 40
0.0375192921384364
 40
0.0379830254707872
 40
0.0384198790440552
 40
0.0385352142684503
 40
0.0385352142684503
 40
0.0385352142684503
 40
0.0385352142684503
 10
8.7218746282
 20
9.436583201999999
 30
0.0
 10
8.723073012932262
 20
9.436536861933895
 30
0.0
 10
8.725437075802114
 20
9.436445446525537
 30
0.0
 10
8.728675671842104
 20
9.436354089521165
 30
0.0
 10
8.73170974704502
 20
9.436294766183788
 30
0.0
 10
8.733019579265173
 20
9.436273906937765
 30
0.0
 10
8.734777316221217
 20
9.436254642734995
 30
0.0
 10
8.73363626845624
 20
9.43626710888847
 30
0.0
 10
8.732992369167169
 20
9.436275894231915
 30
0.0
 10
8.731955503964439
 20
9.436291472613998
 30
0.0
 10
8.730888420917917
 20
9.436310676461799
 30
0.0
 10
8.729715833193093
 20
9.436334891950117
 30
0.0
 10
8.728496944622111
 20
9.436363803651008
 30
0.0
 10
8.727253851649289
 20
9.436397119905027
 30
0.0
 10
8.726016642221971
 20
9.436434157027022
 30
0.0
 10
8.724805932892982
 20
9.436474138134265
 30
0.0
 10
8.723638523700376
 20
9.436516198263511
 30
0.0
 10
8.72252830360666
 20
9.436559401371013
 30
0.0
 10
8.72148834448523
 20
9.436602710842066
 30
0.0
 10
8.720530331048118
 20
9.436645041308308
 30
0.0
 10
8.719662909545588
 20
9.436685391541098
 30
0.0
 10
8.718895374163061
 20
9.436722689528123
 30
0.0
 10
8.71822789067661
 20
9.436756372393023
 30
0.0
 10
8.717681838225026
 20
9.436784739596809
 30
0.0
 10
8.717214530305785
 20
9.436809691946887
 30
0.0
 10
8.716945076823776
 20
9.436824260710146
 30
0.0
 10
8.716500157959133
 20
9.436848774969707
 30
0.0
 10
8.717066415308261
 20
9.436817582572878
 30
0.0
 10
8.717367169373471
 20
9.436801457039202
 30
0.0
 10
8.717889388563817
 20
9.436773727343167
 30
0.0
 10
8.718469239484836
 20
9.436743875924097
 30
0.0
 10
8.719131212939752
 20
9.436710801150939
 30
0.0
 10
8.719805897186029
 20
9.436678296089123
 30
0.0
 10
8.720460158260962
 20
9.436647870224025
 30
0.0
 10
8.721086630582629
 20
9.436619754559126
 30
0.0
 10
8.721685813726718
 20
9.436593791759257
 30
0.0
 10
8.722257651927405
 20
9.436569860341863
 30
0.0
 10
8.72280225335113
 20
9.436547837244372
 30
0.0
 10
8.723319703864767
 20
9.436527606490747
 30
0.0
 10
8.723810106544021
 20
9.436509056207134
 30
0.0
 10
8.724273563917101
 20
9.436492087776843
 30
0.0
 10
8.724611991388101
 20
9.436480069581374
 30
0.0
 10
8.724795943394298
 20
9.436473680319849
 30
0.0
 10
8.724834365299999
 20
9.4364723458
 30
0.0
 11
8.7218746282
 21
9.436583201999999
 31
0.0
 11
8.7254494813
 21
9.4364511087
 31
0.0
 11
8.728927756799999
 21
9.436352944199999
 31
0.0
 11
8.731871957699999
 21
9.4362931487
 31
0.0
 11
8.7337446969
 21
9.4362661767
 31
0.0
 11
8.734429637099999
 21
9.4362584463
 31
0.0
 11
8.733852069499999
 21
9.436264918499999
 31
0.0
 11
8.7329897595
 21
9.436276125899999
 31
0.0
 11
8.732005155299999
 21
9.436291181399999
 31
0.0
 11
8.7309128595
 21
9.4363107038
 31
0.0
 11
8.7297348331
 21
9.436335087899999
 31
0.0
 11
8.728503557599999
 21
9.436364274
 31
0.0
 11
8.7272515794
 21
9.436397836699999
 31
0.0
 11
8.726006854799999
 21
9.436435098
 31
0.0
 11
8.724791601599999
 21
9.436475231099999
 31
0.0
 11
8.723619543999999
 21
9.436517459699999
 31
0.0
 11
8.722504612799999
 21
9.436560847499999
 31
0.0
 11
8.721460910399999
 21
9.4366043133
 31
0.0
 11
8.7204997496
 21
9.4366467849
 31
0.0
 11
8.719630229599999
 21
9.4366872304
 31
0.0
 11
8.718859663299999
 21
9.436724683499999
 31
0.0
 11
8.718193882599999
 21
9.436758265299999
 31
0.0
 11
8.717637453
 21
9.436787202899999
 31
0.0
 11
8.717193827799999
 21
9.4368108443
 31
0.0
 11
8.716865466499999
 21
9.4368286705
 31
0.0
 11
8.7166539385
 21
9.4368403026
 31
0.0
 11
8.7169824356
 21
9.4368222658
 31
0.0
 11
8.7173552435
 21
9.436802126399999
 31
0.0
 11
8.7178421034
 21
9.4367763533
 31
0.0
 11
8.7184417328
 21
9.4367454337
 31
0.0
 11
8.719133907699999
 21
9.436710873799999
 31
0.0
 11
8.719815306399999
 21
9.4366780369
 31
0.0
 11
8.7204692652
 21
9.436647627599999
 31
0.0
 11
8.7210957962
 21
9.436619508599999
 31
0.0
 11
8.7216949377
 21
9.436593547699999
 31
0.0
 11
8.722266751399999
 21
9.436569617299999
 31
0.0
 11
8.722811317999999
 21
9.4365475956
 31
0.0
 11
8.7233287324
 21
9.436527365999999
 31
0.0
 11
8.723819098299999
 21
9.4365088181
 31
0.0
 11
8.724282520999999
 21
9.436491847399999
 31
0.0
 11
8.724719099799999
 21
9.436476355599999
 31
0.0
 11
8.724834365299999
 21
9.4364723458
 31
0.0
  0
SPLINE
  5
7A
330
2
100
AcDbEntity
  8
0
100
AcDbSpline
210
0.0
220
0.0
230
1.0
 70
    24
 71
     3
 72
     8
 73
     4
 74
     2
 42
0.0000000001
 43
0.0000000001
 44
0.0000000001
 40
0.0
 40
0.0
 40
0.0
 40
0.0
 40
0.1212416380273671
 40
0.1212416380273671
 40
0.1212416380273671
 40
0.1212416380273671
 10
8.715697829999999
 20
9.4368982251
 30
0.0
 10
8.676199319133333
 20
9.4454509605
 30
0.0
 10
8.636700808266667
 20
9.454003695899999
 30
0.0
 10
8.5972022974
 20
9.462556431299999
 30
0.0
 11
8.715697829999999
 21
9.4368982251
 31
0.0
 11
8.5972022974
 21
9.462556431299999
 31
0.0
  0
SPLINE
  5
7B
330
2
100
AcDbEntity
  8
0
100
AcDbSpline
210
0.0
220
0.0
230
1.0
 70
     8
 71
     3
 72
    14
 73
    10
 74
     8
 42
0.0000000001
 43
0.0000000001
 44
0.0000000001
 40
0.0
 40
0.0
 40
0.0
 40
0.0
 40
0.000208539666379
 40
0.0006702830289938
 40
0.0009459623458611
 40
0.0012003517991397
 40
0.0022042168456262
 40
0.0044315731377562
 40
0.0046887853117606
 40
0.0046887853117606
 40
0.0046887853117606
 40
0.0046887853117606
 10
7.9123228249
 20
9.436471495799999
 30
0.0
 10
7.912394477749019
 20
9.436470488592464
 30
0.0
 10
7.912624782561101
 20
9.436467251250958
 30
0.0
 10
7.912855918054856
 20
9.436463726680866
 30
0.0
 10
7.91341266565022
 20
9.436455064325373
 30
0.0
 10
7.912605431424773
 20
9.436468334884549
 30
0.0
 10
7.911752785512172
 20
9.436485930017351
 30
0.0
 10
7.910436126494701
 20
9.436518773575954
 30
0.0
 10
7.90961213708305
 20
9.436539997877861
 30
0.0
 10
7.9095268345
 20
9.436542195099999
 30
0.0
 11
7.9123228249
 21
9.436471495799999
 31
0.0
 11
7.9125313437
 21
9.4364685458
 31
0.0
 11
7.9129930346
 21
9.4364615855
 31
0.0
 11
7.913268681699999
 21
9.436457370999999
 31
0.0
 11
7.9130143285
 21
9.436461665599999
 31
0.0
 11
7.9120106519
 21
9.436481115899999
 31
0.0
 11
7.909783961599999
 21
9.436535580199999
 31
0.0
 11
7.9095268345
 21
9.436542195099999
 31
0.0
  0
SPLINE
  5
7C
330
2
100
AcDbEntity
  8
0
100
AcDbSpline
210
0.0
220
0.0
230
1.0
 70
     8
 71
     3
 72
    61
 73
    57
 74
    55
 42
0.0000000001
 43
0.0000000001
 44
0.0000000001
 40
0.0
 40
0.0
 40
0.0
 40
0.0
 40
0.0058773387459574
 40
0.0122175462914529
 40
0.0160063867797879
 40
0.0163754898477701
 40
0.0188227323862869
 40
0.0215210505338777
 40
0.02410573339013
 40
0.026547008083363
 40
0.0288290809386578
 40
0.0309409704669586
 40
0.0328642306364833
 40
0.034579315945662
 40
0.036067094234062
 40
0.0373091504850848
 40
0.0382880757666377
 40
0.0389877193210516
 40
0.0393933441279043
 40
0.0395129880829239
 40
0.0400573847120592
 40
0.0409345793085322
 40
0.042147274099002
 40
0.0435320569129776
 40
0.0448369653209753
 40
0.046054892732869
 40
0.0471824552865209
 40
0.0482175966236174
 40
0.0491600056369116
 40
0.0500091070331992
 40
0.0507646282329294
 40
0.0514245737646629
 40
0.0519867886040456
 40
0.0524490492266552
 40
0.0528090904728532
 40
0.0530646334009726
 40
0.0532134161416824
 40
0.0533792441540636
 40
0.0535112613174152
 40
0.053680019148524
 40
0.0538862315405518
 40
0.0541306237318469
 40
0.0544139361314968
 40
0.0547369118313706
 40
0.0551002976121034
 40
0.0555048475874009
 40
0.055951320588365
 40
0.0564404785103866
 40
0.056972620762809
 40
0.0575177810439152
 40
0.0580575639934421
 40
0.0585918577567129
 40
0.0591205508631356
 40
0.0596435320146176
 40
0.0601606906716428
 40
0.0606148501009924
 40
0.0606148501009924
 40
0.0606148501009924
 40
0.0606148501009924
 10
7.760974385199999
 20
9.5325233732
 30
0.0
 10
7.761813560395914
 20
9.530766274534382
 30
0.0
 10
7.7635579998856
 20
9.5271136972007
 30
0.0
 10
7.766006903212415
 20
9.522182493975998
 30
0.0
 10
7.767451692881268
 20
9.519342488279779
 30
0.0
 10
7.768619336342206
 20
9.517082795196524
 30
0.0
 10
7.76674415092736
 20
9.520733637480141
 30
0.0
 10
7.766009405219778
 20
9.52222998441025
 30
0.0
 10
7.76476669469144
 20
9.524754250395746
 30
0.0
 10
7.763737380314777
 20
9.526896947847372
 30
0.0
 10
7.762755930368214
 20
9.528969120907104
 30
0.0
 10
7.761867905015737
 20
9.530874182876845
 30
0.0
 10
7.761066543166325
 20
9.532617960052981
 30
0.0
 10
7.760362863019125
 20
9.534169513011717
 30
0.0
 10
7.759751425855052
 20
9.535535228717071
 30
0.0
 10
7.759267114065364
 20
9.536627232555559
 30
0.0
 10
7.758833500208375
 20
9.537618787664737
 30
0.0
 10
7.758652676855803
 20
9.538030479640619
 30
0.0
 10
7.758328582641825
 20
9.538785954337811
 30
0.0
 10
7.758506045586337
 20
9.53836773907593
 30
0.0
 10
7.758680049328577
 20
9.537958691881259
 30
0.0
 10
7.759038163948108
 20
9.537113411053679
 30
0.0
 10
7.759483517160226
 20
9.536062480635472
 30
0.0
 10
7.759993667833562
 20
9.534859874806876
 30
0.0
 10
7.7605022200619
 20
9.53366228416166
 30
0.0
 10
7.760978147975455
 20
9.532542041300596
 30
0.0
 10
7.761418742650261
 20
9.531504958739194
 30
0.0
 10
7.761823283869911
 20
9.530552231033908
 30
0.0
 10
7.76219120509871
 20
9.529684821817607
 30
0.0
 10
7.762522272477697
 20
9.528903019302534
 30
0.0
 10
7.762816100180819
 20
9.52820769728776
 30
0.0
 10
7.763072143207136
 20
9.527600224928498
 30
0.0
 10
7.76328964395194
 20
9.527082589669914
 30
0.0
 10
7.763467852668014
 20
9.526656879486553
 30
0.0
 10
7.763606092379052
 20
9.526325257387295
 30
0.0
 10
7.76370368436618
 20
9.526089899692697
 30
0.0
 10
7.76377620949187
 20
9.525914230462866
 30
0.0
 10
7.763832385849903
 20
9.525776359327652
 30
0.0
 10
7.763890581697138
 20
9.525632122696661
 30
0.0
 10
7.763953468667573
 20
9.52547526333684
 30
0.0
 10
7.76402985608666
 20
9.525283460454737
 30
0.0
 10
7.764119870308036
 20
9.525055983483149
 30
0.0
 10
7.764223634367425
 20
9.524792090566553
 30
0.0
 10
7.764341279962663
 20
9.524491036048079
 30
0.0
 10
7.764472942642372
 20
9.524152071307668
 30
0.0
 10
7.764618765798024
 20
9.523774445546864
 30
0.0
 10
7.764778900489007
 20
9.523357405868946
 30
0.0
 10
7.764953450826229
 20
9.522900344000275
 30
0.0
 10
7.76513889913979
 20
9.522412231886576
 30
0.0
 10
7.765329531949893
 20
9.521908038365674
 30
0.0
 10
7.765519572718182
 20
9.521402855062301
 30
0.0
 10
7.765706832069367
 20
9.520902490870101
 30
0.0
 10
7.765891280219586
 20
9.520407055345737
 30
0.0
 10
7.766072862427801
 20
9.51991664850794
 30
0.0
 10
7.766245047020848
 20
9.519449255505712
 30
0.0
 10
7.766356318273741
 20
9.519145203683187
 30
0.0
 10
7.7664083454
 20
9.519003038099999
 30
0.0
 11
7.760974385199999
 21
9.5325233732
 31
0.0
 11
7.7635207889
 21
9.527226304299999
 31
0.0
 11
7.766336244599999
 21
9.521545508499999
 31
0.0
 11
7.768057505899999
 21
9.5181702201
 31
0.0
 11
7.768226969399999
 21
9.517842318899999
 31
0.0
 11
7.767114670999999
 21
9.520022178599999
 31
0.0
 11
7.765907871199999
 21
9.5224355901
 31
0.0
 11
7.7647702558
 21
9.5247564556
 31
0.0
 11
7.7637115002
 21
9.5269561962
 31
0.0
 11
7.7627350674
 21
9.529018824499999
 31
0.0
 11
7.761842727
 21
9.5309329316
 31
0.0
 11
7.7610396546
 21
9.532680502599999
 31
0.0
 11
7.760331397799999
 21
9.534242517299999
 31
0.0
 11
7.7597232785
 21
9.5356003373
 31
0.0
 11
7.7592203332
 21
9.5367360088
 31
0.0
 11
7.758827264699999
 21
9.537632553199999
 31
0.0
 11
7.758548412299999
 21
9.5382742248
 31
0.0
 11
7.758387760099999
 21
9.538646679299999
 31
0.0
 11
7.758434434299999
 21
9.5385365149
 31
0.0
 11
7.7586472811
 21
9.5380354521
 31
0.0
 11
7.7589896931
 21
9.537227848
 31
0.0
 11
7.759462907899999
 21
9.536111292399999
 31
0.0
 11
7.760003693199999
 21
9.534836469
 31
0.0
 11
7.7605136975
 21
9.533635352199999
 31
0.0
 11
7.7609898992
 21
9.5325143798
 31
0.0
 11
7.761430760299999
 21
9.531476574999999
 31
0.0
 11
7.7618352998
 21
9.5305237553
 31
0.0
 11
7.762203260999999
 21
9.529656149799999
 31
0.0
 11
7.7625343321
 21
9.528874251399999
 31
0.0
 11
7.762828386699999
 21
9.528178303
 31
0.0
 11
7.763084674399999
 21
9.527570154399999
 31
0.0
 11
7.763302424199999
 21
9.52705182
 31
0.0
 11
7.7634808904
 21
9.5266253992
 31
0.0
 11
7.763619373
 21
9.5262930556
 31
0.0
 11
7.763717238599999
 21
9.526056995199999
 31
0.0
 11
7.7637739411
 21
9.525919441099999
 31
0.0
 11
7.763836540999999
 21
9.5257658827
 31
0.0
 11
7.763885959799999
 21
9.525643464099999
 31
0.0
 11
7.763948768999999
 21
9.5254868301
 31
0.0
 11
7.764025082799999
 21
9.525295258299999
 31
0.0
 11
7.7641150208
 21
9.5250680168
 31
0.0
 11
7.764218709899999
 21
9.524804360799999
 31
0.0
 11
7.7643362808
 21
9.524503544599999
 31
0.0
 11
7.764467869099999
 21
9.524164820899999
 31
0.0
 11
7.7646136183
 21
9.523787437999999
 31
0.0
 11
7.7647736797
 21
9.523370642499999
 31
0.0
 11
7.7649482137
 21
9.5229136815
 31
0.0
 11
7.7651372265
 21
9.522416238499999
 31
0.0
 11
7.765330022799999
 21
9.5219063078
 31
0.0
 11
7.7655200733
 21
9.521401088599999
 31
0.0
 11
7.765707342799999
 21
9.520900688799999
 31
0.0
 11
7.7658917966
 21
9.5204052161
 31
0.0
 11
7.766073400699999
 21
9.5199147783
 31
0.0
 11
7.7662521216
 21
9.519429482599999
 31
0.0
 11
7.7664083454
 21
9.519003038099999
 31
0.0
  0
SPLINE
  5
7D
330
2
100
AcDbEntity
  8
0
100
AcDbSpline
210
0.0
220
0.0
230
1.0
 70
     8
 71
     3
 72
    52
 73
    48
 74
    46
 42
0.0000000001
 43
0.0000000001
 44
0.0000000001
 40
0.0
 40
0.0
 40
0.0
 40
0.0
 40
0.0091480127411641
 40
0.0261592142312436
 40
0.042852091153947
 40
0.0592367022639604
 40
0.0753236536362944
 40
0.0911235053328721
 40
0.1066464420531788
 40
0.1219020902019603
 40
0.1368998207181497
 40
0.1516488957445749
 40
0.1661574824466938
 40
0.1804315162433121
 40
0.1944767793086326
 40
0.2082988935668112
 40
0.2219025168145821
 40
0.2352918338374311
 40
0.2484710311462141
 40
0.2614442892839923
 40
0.2742157755142456
 40
0.2867905535915607
 40
0.2991757835189774
 40
0.3113788559065737
 40
0.3234065397776741
 40
0.3352649143706787
 40
0.3469600011578237
 40
0.3584977562236551
 40
0.3698840092179749
 40
0.3811243775590496
 40
0.3922263677189636
 40
0.4032081765616143
 40
0.4140527592856609
 40
0.4247394721744707
 40
0.4352442132103844
 40
0.4455441033871887
 40
0.4556185593920013
 40
0.4654489418885815
 40
0.475017541230695
 40
0.484304737539308
 40
0.493280862858464
 40
0.5018719163923223
 40
0.5096769611197861
 40
0.5160171686652815
 40
0.5198060091536166
 40
0.5201751122215988
 40
0.5202862709001589
 40
0.5202862709001589
 40
0.5202862709001589
 40
0.5202862709001589
 10
7.626451263499999
 20
10.0169425401
 30
0.0
 10
7.627024757431092
 20
10.01394761634055
 30
0.0
 10
7.628664692904317
 20
10.00538347739075
 30
0.0
 10
7.631394386663011
 20
9.991362658688302
 30
0.0
 10
7.634639039530108
 20
9.974984707322066
 30
0.0
 10
7.637881085260127
 20
9.958920409378858
 30
0.0
 10
7.641120341708232
 20
9.9431593313589
 30
0.0
 10
7.644357753927565
 20
9.927691206836954
 30
0.0
 10
7.647594342514792
 20
9.912506121910215
 30
0.0
 10
7.65083152795362
 20
9.897594653844208
 30
0.0
 10
7.65407056205186
 20
9.882947663099628
 30
0.0
 10
7.657312626254212
 20
9.868556495690087
 30
0.0
 10
7.660558651097697
 20
9.85441361816413
 30
0.0
 10
7.663809304545077
 20
9.840512629395318
 30
0.0
 10
7.667065062002423
 20
9.82684795704524
 30
0.0
 10
7.670326237651574
 20
9.813414428614054
 30
0.0
 10
7.673593881174644
 20
9.800207602552299
 30
0.0
 10
7.676868920648978
 20
9.78722351374267
 30
0.0
 10
7.680152167586298
 20
9.774458343908358
 30
0.0
 10
7.683444379219271
 20
9.761908278531425
 30
0.0
 10
7.686746338186054
 20
9.749569218555402
 30
0.0
 10
7.690059048749171
 20
9.73743610659768
 30
0.0
 10
7.693383805320236
 20
9.72550286091473
 30
0.0
 10
7.696722042324942
 20
9.713762858354455
 30
0.0
 10
7.700075300524309
 20
9.702209890604384
 30
0.0
 10
7.703445191456566
 20
9.690838258971435
 30
0.0
 10
7.706833264428109
 20
9.679642544847293
 30
0.0
 10
7.710241104680173
 20
9.668617443507191
 30
0.0
 10
7.713670304187721
 20
9.657757810173835
 30
0.0
 10
7.717122687081517
 20
9.647058049697621
 30
0.0
 10
7.720601382594876
 20
9.636508674091988
 30
0.0
 10
7.724107525972583
 20
9.626107515063541
 30
0.0
 10
7.727638358589951
 20
9.615861012608245
 30
0.0
 10
7.731189429901455
 20
9.605789950317403
 30
0.0
 10
7.734761619451122
 20
9.595919201162487
 30
0.0
 10
7.738353459556251
 20
9.58627303820109
 30
0.0
 10
7.741963067571755
 20
9.576873883269428
 30
0.0
 10
7.745587633027843
 20
9.5677422190814
 30
0.0
 10
7.749222901088586
 20
9.558897863514575
 30
0.0
 10
7.752861395441517
 20
9.550363521114036
 30
0.0
 10
7.756485929158179
 20
9.542178368081033
 30
0.0
 10
7.760022493320453
 20
9.534495537548631
 30
0.0
 10
7.763292844661307
 20
9.527658414823431
 30
0.0
 10
7.76594426498281
 20
9.522300307267716
 30
0.0
 10
7.767535432924255
 20
9.519183556237074
 30
0.0
 10
7.768187129380329
 20
9.517918513505986
 30
0.0
 10
7.768261228447345
 20
9.517776607552617
 30
0.0
 10
7.768278378999999
 20
9.5177437628
 30
0.0
 11
7.626451263499999
 21
10.0169425401
 31
0.0
 11
7.6281749758
 21
10.00795839
 31
0.0
 11
7.6314239179
 21
9.9912603257
 31
0.0
 11
7.634668820499999
 21
9.974885871599999
 31
0.0
 11
7.637910321899999
 21
9.958825107299999
 31
0.0
 11
7.6411491903
 21
9.9430675778
 31
0.0
 11
7.644386235299999
 21
9.9276028808
 31
0.0
 11
7.64762255
 21
9.912421055099999
 31
0.0
 11
7.6508594382
 21
9.897512756899999
 31
0.0
 11
7.654098163799999
 21
9.882868898899999
 31
0.0
 11
7.6573399756
 21
9.8684805053
 31
0.0
 11
7.6605858932
 21
9.8543396741
 31
0.0
 11
7.6638364352
 21
9.8404406807
 31
0.0
 11
7.667092067899999
 21
9.8267779478
 31
0.0
 11
7.670353326899999
 21
9.8133460815
 31
0.0
 11
7.673621084899999
 21
9.8001407673
 31
0.0
 11
7.676896220799999
 21
9.787158190699999
 31
0.0
 11
7.68017955
 21
9.7743945317
 31
0.0
 11
7.6834718298
 21
9.761845973199999
 31
0.0
 11
7.686773764099999
 21
9.7495087089
 31
0.0
 11
7.6900862512
 21
9.737378066999999
 31
0.0
 11
7.693410737699999
 21
9.7254473625
 31
0.0
 11
7.6967487699
 21
9.713709708699999
 31
0.0
 11
7.700101897399999
 21
9.7021588769
 31
0.0
 11
7.7034716444
 21
9.6907893627
 31
0.0
 11
7.706859568099999
 21
9.6795957472
 31
0.0
 11
7.710267256999999
 21
9.6685727055
 31
0.0
 11
7.713696316
 21
9.657715067099999
 31
0.0
 11
7.717148341399999
 21
9.647017899199999
 31
0.0
 11
7.7206255834
 21
9.636474513899999
 31
0.0
 11
7.7241338479
 21
9.6260681598
 31
0.0
 11
7.727667786599999
 21
9.615815538099999
 31
0.0
 11
7.731223547399999
 21
9.605737721
 31
0.0
 11
7.734800161399999
 21
9.5958606052
 31
0.0
 11
7.738396267199999
 21
9.586208881999999
 31
0.0
 11
7.7420099424
 21
9.576804839499999
 31
0.0
 11
7.745638497499999
 21
9.567668647299999
 31
0.0
 11
7.7492780118
 21
9.558819238899999
 31
0.0
 11
7.7529220814
 21
9.550276828699999
 31
0.0
 11
7.7565581619
 21
9.542070139699999
 31
0.0
 11
7.760152089099999
 21
9.5342669424
 31
0.0
 11
7.7635207889
 21
9.527226304299999
 31
0.0
 11
7.766336244599999
 21
9.521545508499999
 31
0.0
 11
7.768057505899999
 21
9.5181702201
 31
0.0
 11
7.768226969399999
 21
9.517842318899999
 31
0.0
 11
7.768278378999999
 21
9.5177437628
 31
0.0
  0
SPLINE
  5
7E
330
2
100
AcDbEntity
  8
0
100
AcDbSpline
210
0.0
220
0.0
230
1.0
 70
     8
 71
     3
 72
    12
 73
     8
 74
     6
 42
0.0000000001
 43
0.0000000001
 44
0.0000000001
 40
0.0
 40
0.0
 40
0.0
 40
0.0
 40
0.02394632030004
 40
0.0458772534000767
 40
0.0631248767000769
 40
0.0743744284001865
 40
0.078000000000581
 40
0.078000000000581
 40
0.078000000000581
 40
0.078000000000581
 10
6.6936157518
 20
11.3177215815
 30
0.0
 10
6.685633645033338
 20
11.31772156012266
 30
0.0
 10
6.670341227233346
 20
11.31772151916716
 30
0.0
 10
6.649299601666628
 20
11.31772156650797
 30
0.0
 10
6.632490232300108
 20
11.31772163669507
 30
0.0
 10
6.621782650099547
 20
11.31772147417528
 30
0.0
 10
6.61682427566665
 20
11.31772156046763
 30
0.0
 10
6.6156157518
 20
11.3177215815
 30
0.0
 11
6.6936157518
 21
11.3177215815
 31
0.0
 11
6.6696694315
 21
11.3177215379
 31
0.0
 11
6.647738498399999
 21
11.3177215779
 31
0.0
 11
6.630490875099999
 21
11.3177215777
 31
0.0
 11
6.619241323399999
 21
11.317721528
 31
0.0
 11
6.6156157518
 21
11.3177215815
 31
0.0
  0
SPLINE
  5
7F
330
2
100
AcDbEntity
  8
0
100
AcDbSpline
210
0.0
220
0.0
230
1.0
 70
    24
 71
     3
 72
     8
 73
     4
 74
     2
 42
0.0000000001
 43
0.0000000001
 44
0.0000000001
 40
0.0
 40
0.0
 40
0.0
 40
0.0
 40
0.0040003231607639
 40
0.0040003231607639
 40
0.0040003231607639
 40
0.0040003231607639
 10
8.460810478899999
 20
9.5371224356
 30
0.0
 10
8.461889973366666
 20
9.5363396478
 30
0.0
 10
8.462969467833332
 20
9.535556859999999
 30
0.0
 10
8.464048962299999
 20
9.534774072199999
 30
0.0
 11
8.460810478899999
 21
9.5371224356
 31
0.0
 11
8.464048962299999
 21
9.534774072199999
 31
0.0
  0
SPLINE
  5
80
330
2
100
AcDbEntity
  8
0
100
AcDbSpline
210
0.0
220
0.0
230
1.0
 70
    24
 71
     3
 72
     8
 73
     4
 74
     2
 42
0.0000000001
 43
0.0000000001
 44
0.0000000001
 40
0.0
 40
0.0
 40
0.0
 40
0.0
 40
0.003952390825318
 40
0.003952390825318
 40
0.003952390825318
 40
0.003952390825318
 10
8.464048962299999
 20
9.534774072199999
 30
0.0
 10
8.465119687399999
 20
9.534006440699998
 30
0.0
 10
8.466190412499999
 20
9.533238809199998
 30
0.0
 10
8.467261137599999
 20
9.532471177699999
 30
0.0
 11
8.464048962299999
 21
9.534774072199999
 31
0.0
 11
8.467261137599999
 21
9.532471177699999
 31
0.0
  0
SPLINE
  5
81
330
2
100
AcDbEntity
  8
0
100
AcDbSpline
210
0.0
220
0.0
230
1.0
 70
     8
 71
     3
 72
    16
 73
    12
 74
    10
 42
0.0000000001
 43
0.0000000001
 44
0.0000000001
 40
0.0
 40
0.0
 40
0.0
 40
0.0
 40
0.0038944264993434
 40
0.0077210617674112
 40
0.0114730686481226
 40
0.0151529051342686
 40
0.0187650345112875
 40
0.0223140686633584
 40
0.0258049332265845
 40
0.0292427747110602
 40
0.0326326871619229
 40
0.0326326871619229
 40
0.0326326871619229
 40
0.0326326871619229
 10
8.467261137599999
 20
9.532471177699999
 30
0.0
 10
8.468319370345241
 20
9.531719296900774
 30
0.0
 10
8.470417414920399
 20
9.530228623474652
 30
0.0
 10
8.47355002529688
 20
9.528034844670131
 30
0.0
 10
8.476634666627713
 20
9.52589737080034
 30
0.0
 10
8.479671803666295
 20
9.523816965965224
 30
0.0
 10
8.48266376024733
 20
9.521790418515799
 30
0.0
 10
8.485613857706905
 20
9.519814475886928
 30
0.0
 10
8.488525890362039
 20
9.517886195706541
 30
0.0
 10
8.491402778990574
 20
9.516000962421788
 30
0.0
 10
8.493314529725672
 20
9.514766039462667
 30
0.0
 10
8.4942636951
 20
9.5141529124
 30
0.0
 11
8.467261137599999
 21
9.532471177699999
 31
0.0
 11
8.470438409599999
 21
9.530219178499999
 31
0.0
 11
8.473572224899999
 21
9.528023195999999
 31
0.0
 11
8.4766563726
 21
9.525886472199999
 31
0.0
 11
8.4796922456
 21
9.523806887699999
 31
0.0
 11
8.482682934399999
 21
9.5217812374
 31
0.0
 11
8.485631710399999
 21
9.519806303599999
 31
0.0
 11
8.488542174499999
 21
9.5178787834
 31
0.0
 11
8.4914182042
 21
9.515995380299999
 31
0.0
 11
8.4942636951
 21
9.5141529124
 31
0.0
  0
SPLINE
  5
82
330
2
100
AcDbEntity
  8
0
100
AcDbSpline
210
0.0
220
0.0
230
1.0
 70
     8
 71
     3
 72
    11
 73
     7
 74
     5
 42
0.0000000001
 43
0.0000000001
 44
0.0000000001
 40
0.0
 40
0.0
 40
0.0
 40
0.0
 40
0.0033471058878756
 40
0.0066565536897321
 40
0.0099384282651175
 40
0.0131975394366403
 40
0.0131975394366403
 40
0.0131975394366403
 40
0.0131975394366403
 10
8.4942636951
 20
9.5141529124
 30
0.0
 10
8.495202668451863
 20
9.513550312828137
 30
0.0
 10
8.497070050823165
 20
9.512351893495765
 30
0.0
 10
8.499869946440616
 20
9.510581182573531
 30
0.0
 10
8.50265283493058
 20
9.508838516125713
 30
0.0
 10
8.504508478730143
 20
9.507693770224872
 30
0.0
 10
8.5054330717
 20
9.5071233892
 30
0.0
 11
8.4942636951
 21
9.5141529124
 31
0.0
 11
8.4970826201
 21
9.512348257399999
 31
0.0
 11
8.4998790274
 21
9.510578355999999
 31
0.0
 11
8.502661209799999
 21
9.508837619999999
 31
0.0
 11
8.5054330717
 21
9.5071233892
 31
0.0
  0
SPLINE
  5
83
330
2
100
AcDbEntity
  8
0
100
AcDbSpline
210
0.0
220
0.0
230
1.0
 70
    24
 71
     3
 72
     8
 73
     4
 74
     2
 42
0.0000000001
 43
0.0000000001
 44
0.0000000001
 40
0.0
 40
0.0
 40
0.0
 40
0.0
 40
0.0032043952133141
 40
0.0032043952133141
 40
0.0032043952133141
 40
0.0032043952133141
 10
8.5054330717
 20
9.5071233892
 30
0.0
 10
8.506344430233333
 20
9.506566315566665
 30
0.0
 10
8.507255788766666
 20
9.506009241933332
 30
0.0
 10
8.5081671473
 20
9.505452168299999
 30
0.0
 11
8.5054330717
 21
9.5071233892
 31
0.0
 11
8.5081671473
 21
9.505452168299999
 31
0.0
  0
SPLINE
  5
84
330
2
100
AcDbEntity
  8
0
100
AcDbSpline
210
0.0
220
0.0
230
1.0
 70
     8
 71
     3
 72
    16
 73
    12
 74
    10
 42
0.0000000001
 43
0.0000000001
 44
0.0000000001
 40
0.0
 40
0.0
 40
0.0
 40
0.0
 40
0.0031186651047799
 40
0.006124453875476
 40
0.0089948643044762
 40
0.0117124819795029
 40
0.0142594678461699
 40
0.0165564060750681
 40
0.0179410877295496
 40
0.0183493684453007
 40
0.0184283100420573
 40
0.0184283100420573
 40
0.0184283100420573
 40
0.0184283100420573
 10
8.5081671473
 20
9.505452168299999
 30
0.0
 10
8.50905672822801
 20
9.504913380873723
 30
0.0
 10
8.51080369277183
 20
9.503855306784313
 30
0.0
 10
8.513372468420051
 20
9.502321700841402
 30
0.0
 10
8.515859006407424
 20
9.500853072005412
 30
0.0
 10
8.518130679702728
 20
9.499524351939754
 30
0.0
 10
8.520545845391012
 20
9.498129875424332
 30
0.0
 10
8.521668603319396
 20
9.497482753680632
 30
0.0
 10
8.524116256098105
 20
9.496092394482131
 30
0.0
 10
8.523372888495345
 20
9.496514409619383
 30
0.0
 10
8.52323466757487
 20
9.496592950939135
 30
0.0
 10
8.5232122725
 20
9.496605676499999
 30
0.0
 11
8.5081671473
 21
9.505452168299999
 31
0.0
 11
8.510836427399999
 21
9.5038394018
 31
0.0
 11
8.513416907899999
 21
9.5022980107
 31
0.0
 11
8.515888332499999
 21
9.500838107799999
 31
0.0
 11
8.518234659199999
 21
9.4994669051
 31
0.0
 11
8.520439366299999
 21
9.4981915998
 31
0.0
 11
8.5224323506
 21
9.497049698399999
 31
0.0
 11
8.523635949299999
 21
9.4963650865
 31
0.0
 11
8.5232809085
 21
9.4965666781
 31
0.0
 11
8.5232122725
 21
9.496605676499999
 31
0.0
  0
SPLINE
  5
85
330
2
100
AcDbEntity
  8
0
100
AcDbSpline
210
0.0
220
0.0
230
1.0
 70
     8
 71
     3
 72
    10
 73
     6
 74
     4
 42
0.0000000001
 43
0.0000000001
 44
0.0000000001
 40
0.0
 40
0.0
 40
0.0
 40
0.0
 40
0.0054501992158972
 40
0.00983565203176
 40
0.0113058871345704
 40
0.0113058871345704
 40
0.0113058871345704
 40
0.0113058871345704
 10
8.4628597598
 20
9.535668493199999
 30
0.0
 10
8.464336630232294
 20
9.534610477014938
 30
0.0
 10
8.467001850913709
 20
9.532701137809524
 30
0.0
 10
8.470083709340284
 20
9.530532028096954
 30
0.0
 10
8.471684574890353
 20
9.529415280567974
 30
0.0
 10
8.472086517199999
 20
9.529134889699999
 30
0.0
 11
8.4628597598
 21
9.535668493199999
 31
0.0
 11
8.4672952435
 21
9.532501293199999
 31
0.0
 11
8.4708809847
 21
9.529976485
 31
0.0
 11
8.472086517199999
 21
9.529134889699999
 31
0.0
  0
SPLINE
  5
86
330
2
100
AcDbEntity
  8
0
100
AcDbSpline
210
0.0
220
0.0
230
1.0
 70
    24
 71
     3
 72
     8
 73
     4
 74
     2
 42
0.0000000001
 43
0.0000000001
 44
0.0000000001
 40
0.0
 40
0.0
 40
0.0
 40
0.0
 40
0.015761850629401
 40
0.015761850629401
 40
0.015761850629401
 40
0.015761850629401
 10
8.442674550299999
 20
9.550533553399999
 30
0.0
 10
8.438528188466666
 20
9.55376026633333
 30
0.0
 10
8.434381826633332
 20
9.556986979266664
 30
0.0
 10
8.4302354648
 20
9.560213692199999
 30
0.0
 11
8.442674550299999
 21
9.550533553399999
 31
0.0
 11
8.4302354648
 21
9.560213692199999
 31
0.0
  0
SPLINE
  5
87
330
2
100
AcDbEntity
  8
0
100
AcDbSpline
210
0.0
220
0.0
230
1.0
 70
    24
 71
     3
 72
     8
 73
     4
 74
     2
 42
0.0000000001
 43
0.0000000001
 44
0.0000000001
 40
0.0
 40
0.0
 40
0.0
 40
0.0
 40
0.0033111604605328
 40
0.0033111604605328
 40
0.0033111604605328
 40
0.0033111604605328
 10
8.045487125599999
 20
10.037299558
 30
0.0
 10
8.046054141566667
 20
10.03635262026667
 30
0.0
 10
8.046621157533333
 20
10.03540568253333
 30
0.0
 10
8.0471881735
 20
10.0344587448
 30
0.0
 11
8.045487125599999
 21
10.037299558
 31
0.0
 11
8.0471881735
 21
10.0344587448
 31
0.0
  0
SPLINE
  5
88
330
2
100
AcDbEntity
  8
0
100
AcDbSpline
210
0.0
220
0.0
230
1.0
 70
     8
 71
     3
 72
     9
 73
     5
 74
     3
 42
0.0000000001
 43
0.0000000001
 44
0.0000000001
 40
0.0
 40
0.0
 40
0.0
 40
0.0
 40
0.005913612195839
 40
0.0632039090306181
 40
0.0632039090306181
 40
0.0632039090306181
 40
0.0632039090306181
 10
8.0471881735
 20
10.0344587448
 30
0.0
 10
8.048202515429135
 20
10.03276854469179
 30
0.0
 10
8.059043668499686
 20
10.01470390833328
 30
0.0
 10
8.07016503050233
 20
9.996809603934501
 30
0.0
 10
8.080245833099999
 20
9.9805895627
 30
0.0
 11
8.0471881735
 21
10.0344587448
 31
0.0
 11
8.050233652299999
 21
10.0293896356
 31
0.0
 11
8.080245833099999
 21
9.9805895627
 31
0.0
  0
SPLINE
  5
89
330
2
100
AcDbEntity
  8
0
100
AcDbSpline
210
0.0
220
0.0
230
1.0
 70
     8
 71
     3
 72
     9
 73
     5
 74
     3
 42
0.0000000001
 43
0.0000000001
 44
0.0000000001
 40
0.0
 40
0.0
 40
0.0
 40
0.0
 40
0.0809168175947102
 40
0.1363841810114315
 40
0.1363841810114315
 40
0.1363841810114315
 40
0.1363841810114315
 10
8.080245833099999
 20
9.9805895627
 30
0.0
 10
8.094752384626444
 20
9.957846465846502
 30
0.0
 10
8.119202977322066
 20
9.919513289502816
 30
0.0
 10
8.145112214149936
 20
9.882153095261353
 30
0.0
 10
8.155649484999999
 20
9.866958727
 30
0.0
 11
8.080245833099999
 21
9.9805895627
 31
0.0
 11
8.124278938599999
 21
9.9127027673
 31
0.0
 11
8.155649484999999
 21
9.866958727
 31
0.0
  0
SPLINE
  5
8A
330
2
100
AcDbEntity
  8
0
100
AcDbSpline
210
0.0
220
0.0
230
1.0
 70
     8
 71
     3
 72
    10
 73
     6
 74
     4
 42
0.0000000001
 43
0.0000000001
 44
0.0000000001
 40
0.0
 40
0.0
 40
0.0
 40
0.0
 40
0.0807391298450062
 40
0.2102654869592373
 40
0.2462354951332307
 40
0.2462354951332307
 40
0.2462354951332307
 40
0.2462354951332307
 10
8.155649484999999
 20
9.866958727
 30
0.0
 10
8.171351556094018
 20
9.84510040424298
 30
0.0
 10
8.212243792995636
 20
9.788175702584197
 30
0.0
 10
8.264019753083056
 20
9.724344355926586
 30
0.0
 10
8.301029708636534
 20
9.683436086022592
 30
0.0
 10
8.309073682299999
 20
9.6745448285
 30
0.0
 11
8.155649484999999
 21
9.866958727
 31
0.0
 11
8.203245263199999
 21
9.8017402558
 31
0.0
 11
8.2850462085
 21
9.7013127569
 31
0.0
 11
8.309073682299999
 21
9.6745448285
 31
0.0
  0
SPLINE
  5
8B
330
2
100
AcDbEntity
  8
0
100
AcDbSpline
210
0.0
220
0.0
230
1.0
 70
     8
 71
     3
 72
     9
 73
     5
 74
     3
 42
0.0000000001
 43
0.0000000001
 44
0.0000000001
 40
0.0
 40
0.0
 40
0.0
 40
0.0
 40
0.0839903659828102
 40
0.1667143072405834
 40
0.1667143072405834
 40
0.1667143072405834
 40
0.1667143072405834
 10
8.309073682299999
 20
9.6745448285
 30
0.0
 10
8.328305164293846
 20
9.6541619929916
 30
0.0
 10
8.366478151877563
 20
9.613703658733625
 30
0.0
 10
8.409091006327992
 20
9.577953240693716
 30
0.0
 10
8.430235581899999
 20
9.560213818499999
 30
0.0
 11
8.309073682299999
 21
9.6745448285
 31
0.0
 11
8.3678950225
 21
9.6145912505
 31
0.0
 11
8.430235581899999
 21
9.560213818499999
 31
0.0
  0
SPLINE
  5
8C
330
2
100
AcDbEntity
  8
0
100
AcDbSpline
210
0.0
220
0.0
230
1.0
 70
    24
 71
     3
 72
     8
 73
     4
 74
     2
 42
0.0000000001
 43
0.0000000001
 44
0.0000000001
 40
0.0
 40
0.0
 40
0.0
 40
0.0
 40
0.0154669068491877
 40
0.0154669068491877
 40
0.0154669068491877
 40
0.0154669068491877
 10
8.430235581899999
 20
9.560213818499999
 30
0.0
 10
8.434303735533333
 20
9.557046689733333
 30
0.0
 10
8.438371889166667
 20
9.553879560966665
 30
0.0
 10
8.442440042799999
 20
9.550712432199999
 30
0.0
 11
8.430235581899999
 21
9.560213818499999
 31
0.0
 11
8.442440042799999
 21
9.550712432199999
 31
0.0
  0
SPLINE
  5
8D
330
2
100
AcDbEntity
  8
0
100
AcDbSpline
210
0.0
220
0.0
230
1.0
 70
    24
 71
     3
 72
     8
 73
     4
 74
     2
 42
0.0000000001
 43
0.0000000001
 44
0.0000000001
 40
0.0
 40
0.0
 40
0.0
 40
0.0
 40
0.0024077313900395
 40
0.0024077313900395
 40
0.0024077313900395
 40
0.0024077313900395
 10
8.442440042799999
 20
9.550712432199999
 30
0.0
 10
8.443078837099999
 20
9.550226559899998
 30
0.0
 10
8.4437176314
 20
9.549740687599998
 30
0.0
 10
8.4443564257
 20
9.549254815299999
 30
0.0
 11
8.442440042799999
 21
9.550712432199999
 31
0.0
 11
8.4443564257
 21
9.549254815299999
 31
0.0
  0
SPLINE
  5
8E
330
2
100
AcDbEntity
  8
0
100
AcDbSpline
210
0.0
220
0.0
230
1.0
 70
    24
 71
     3
 72
     8
 73
     4
 74
     2
 42
0.0000000001
 43
0.0000000001
 44
0.0000000001
 40
0.0
 40
0.0
 40
0.0
 40
0.0
 40
0.1200258050685766
 40
0.1200258050685766
 40
0.1200258050685766
 40
0.1200258050685766
 10
8.5950902998
 20
9.463352756
 30
0.0
 10
8.559519463299999
 20
9.481666788866666
 30
0.0
 10
8.523948626799999
 20
9.499980821733332
 30
0.0
 10
8.488377790299999
 20
9.5182948546
 30
0.0
 11
8.5950902998
 21
9.463352756
 31
0.0
 11
8.488377790299999
 21
9.5182948546
 31
0.0
  0
SPLINE
  5
8F
330
2
100
AcDbEntity
  8
0
100
AcDbSpline
210
0.0
220
0.0
230
1.0
 70
    24
 71
     3
 72
     8
 73
     4
 74
     2
 42
0.0000000001
 43
0.0000000001
 44
0.0000000001
 40
0.0
 40
0.0
 40
0.0
 40
0.0
 40
0.0358614833130899
 40
0.0358614833130899
 40
0.0358614833130899
 40
0.0358614833130899
 10
8.4846759394
 20
9.520714683199999
 30
0.0
 10
8.474856911533333
 20
9.527532358033333
 30
0.0
 10
8.465037883666667
 20
9.534350032866665
 30
0.0
 10
8.4552188558
 20
9.541167707699999
 30
0.0
 11
8.4846759394
 21
9.520714683199999
 31
0.0
 11
8.4552188558
 21
9.541167707699999
 31
0.0
  0
SPLINE
  5
90
330
2
100
AcDbEntity
  8
0
100
AcDbSpline
210
0.0
220
0.0
230
1.0
 70
    24
 71
     3
 72
     8
 73
     4
 74
     2
 42
0.0000000001
 43
0.0000000001
 44
0.0000000001
 40
0.0
 40
0.0
 40
0.0
 40
0.0
 40
0.0135422929658197
 40
0.0135422929658197
 40
0.0135422929658197
 40
0.0135422929658197
 10
8.4552188558
 20
9.541167707699999
 30
0.0
 10
8.451598045466667
 20
9.543863409866666
 30
0.0
 10
8.447977235133334
 20
9.546559112033333
 30
0.0
 10
8.4443564248
 20
9.549254814199999
 30
0.0
 11
8.4552188558
 21
9.541167707699999
 31
0.0
 11
8.4443564248
 21
9.549254814199999
 31
0.0
  0
SPLINE
  5
91
330
2
100
AcDbEntity
  8
0
100
AcDbSpline
210
0.0
220
0.0
230
1.0
 70
     8
 71
     3
 72
    23
 73
    19
 74
    17
 42
0.0000000001
 43
0.0000000001
 44
0.0000000001
 40
0.0
 40
0.0
 40
0.0
 40
0.0
 40
0.0041092778521787
 40
0.0135795317875011
 40
0.0227673627039639
 40
0.0317095690220896
 40
0.040437898429358
 40
0.0489683394237894
 40
0.0573135719357819
 40
0.0654863696520466
 40
0.0734996366960683
 40
0.0813664147123349
 40
0.089099872169352
 40
0.096713289369239
 40
0.1042189105779792
 40
0.1116204970553174
 40
0.118917957996576
 40
0.1246769656477486
 40
0.1246769656477486
 40
0.1246769656477486
 40
0.1246769656477486
 10
8.4846759368
 20
9.520714679199999
 30
0.0
 10
8.485821451247234
 20
9.519963650527875
 30
0.0
 10
8.489606921689695
 20
9.517481798948768
 30
0.0
 10
8.496000473052802
 20
9.513392547943695
 30
0.0
 10
8.503816370308811
 20
9.508538854088708
 30
0.0
 10
8.511488499641677
 20
9.503924049591365
 30
0.0
 10
8.519035702075386
 20
9.499528414845272
 30
0.0
 10
8.526471653075713
 20
9.495338879312711
 30
0.0
 10
8.533804502545351
 20
9.491345366530502
 30
0.0
 10
8.541041811653316
 20
9.487538662382522
 30
0.0
 10
8.548191461445423
 20
9.48390972452837
 30
0.0
 10
8.555261717330081
 20
9.48044978999993
 30
0.0
 10
8.562261201111114
 20
9.477150337699137
 30
0.0
 10
8.569198649099387
 20
9.474003570923388
 30
0.0
 10
8.576079893192757
 20
9.471002571508751
 30
0.0
 10
8.582907923412209
 20
9.468145267113335
 30
0.0
 10
8.589234490527964
 20
9.465599116514054
 30
0.0
 10
8.593297962124198
 20
9.464040312982772
 30
0.0
 10
8.595090297
 20
9.4633527487
 30
0.0
 11
8.4846759368
 21
9.520714679199999
 31
0.0
 11
8.4881150392
 21
9.5184655151
 31
0.0
 11
8.4960911312
 21
9.513359864699999
 31
0.0
 11
8.503897425899999
 21
9.5085144545
 31
0.0
 11
8.511560450099999
 21
9.503905646199999
 31
0.0
 11
8.519103169999999
 21
9.499513481499999
 31
0.0
 11
8.5265354669
 21
9.4953266705
 31
0.0
 11
8.533864582899999
 21
9.4913358104
 31
0.0
 11
8.5410980551
 21
9.4875316676
 31
0.0
 11
8.548243772299999
 21
9.483905212799999
 31
0.0
 11
8.5553100006
 21
9.4804476683
 31
0.0
 11
8.5623053874
 21
9.4771505593
 31
0.0
 11
8.569238956299999
 21
9.474005762999999
 31
0.0
 11
8.576119055199999
 21
9.4710059982
 31
0.0
 11
8.5829464331
 21
9.4681476082
 31
0.0
 11
8.5897183146
 21
9.4654283147
 31
0.0
 11
8.595090297
 21
9.4633527487
 31
0.0
  0
SPLINE
  5
92
330
2
100
AcDbEntity
  8
0
100
AcDbSpline
210
0.0
220
0.0
230
1.0
 70
     8
 71
     3
 72
     9
 73
     5
 74
     3
 42
0.0000000001
 43
0.0000000001
 44
0.0000000001
 40
0.0
 40
0.0
 40
0.0
 40
0.0
 40
0.0145504059127643
 40
0.0149597519640736
 40
0.0149597519640736
 40
0.0149597519640736
 40
0.0149597519640736
 10
10.1749577559
 20
9.4191896122
 30
0.0
 10
10.17873885160478
 20
9.422262815633889
 30
0.0
 10
10.18262632074035
 20
9.425422477390526
 30
0.0
 10
10.18697112542449
 20
9.427870558763467
 30
0.0
 10
10.187090013
 20
9.427937546
 30
0.0
 11
10.1749577559
 21
9.4191896122
 31
0.0
 11
10.1867336927
 21
9.4277360515
 31
0.0
 11
10.187090013
 21
9.427937546
 31
0.0
  0
SPLINE
  5
93
330
2
100
AcDbEntity
  8
0
100
AcDbSpline
210
0.0
220
0.0
230
1.0
 70
     8
 71
     3
 72
     9
 73
     5
 74
     3
 42
0.0000000001
 43
0.0000000001
 44
0.0000000001
 40
0.0
 40
0.0
 40
0.0
 40
0.0
 40
0.0222107019408051
 40
0.0339931670200373
 40
0.0339931670200373
 40
0.0339931670200373
 40
0.0339931670200373
 10
10.187090013
 20
9.427937546
 30
0.0
 10
10.19392741498541
 20
9.431037448243168
 30
0.0
 10
10.2043919625847
 20
9.435781805039212
 30
0.0
 10
10.21578643098175
 20
9.436290319206426
 30
0.0
 10
10.219735899
 20
9.4364665767
 30
0.0
 11
10.187090013
 21
9.427937546
 31
0.0
 11
10.207999216
 21
9.4354289084
 31
0.0
 11
10.219735899
 21
9.4364665767
 31
0.0
  0
SPLINE
  5
94
330
2
100
AcDbEntity
  8
0
100
AcDbSpline
210
0.0
220
0.0
230
1.0
 70
    24
 71
     3
 72
     8
 73
     4
 74
     2
 42
0.0000000001
 43
0.0000000001
 44
0.0000000001
 40
0.0
 40
0.0
 40
0.0
 40
0.0
 40
0.0096120126279294
 40
0.0096120126279294
 40
0.0096120126279294
 40
0.0096120126279294
 10
7.9123461168
 20
9.4364715778
 30
0.0
 10
7.9091422261
 20
9.436498547333332
 30
0.0
 10
7.905938335399999
 20
9.436525516866666
 30
0.0
 10
7.9027344447
 20
9.4365524864
 30
0.0
 11
7.9123461168
 21
9.4364715778
 31
0.0
 11
7.9027344447
 21
9.4365524864
 31
0.0
  0
SPLINE
  5
95
330
2
100
AcDbEntity
  8
0
100
AcDbSpline
210
0.0
220
0.0
230
1.0
 70
     8
 71
     3
 72
    28
 73
    24
 74
    22
 42
0.0000000001
 43
0.0000000001
 44
0.0000000001
 40
0.0
 40
0.0
 40
0.0
 40
0.0
 40
0.0090023623304287
 40
0.0174731699033643
 40
0.025481540385871
 40
0.0330375567552099
 40
0.0400873281354095
 40
0.0466342104831934
 40
0.0528479303153287
 40
0.0589710699411049
 40
0.0652459929296855
 40
0.0719778035157226
 40
0.0796342548465562
 40
0.0889659817202368
 40
0.1001182596644552
 40
0.1113119603259125
 40
0.1214577883629625
 40
0.130997773726978
 40
0.1404573284017073
 40
0.1499447951527082
 40
0.1595112726691709
 40
0.1692561499835124
 40
0.1726772191410333
 40
0.1726772191410333
 40
0.1726772191410333
 40
0.1726772191410333
 10
7.9027344447
 20
9.4365524864
 30
0.0
 10
7.899734145170075
 20
9.43660998729937
 30
0.0
 10
7.89391070221998
 20
9.436721593891888
 30
0.0
 10
7.885422927158227
 20
9.437058811619991
 30
0.0
 10
7.877424202185041
 20
9.437523672330943
 30
0.0
 10
7.869909570281418
 20
9.438126019708207
 30
0.0
 10
7.862895896375913
 20
9.438856420042441
 30
0.0
 10
7.856346836501479
 20
9.439708184599842
 30
0.0
 10
7.850128709150972
 20
9.440691978157847
 30
0.0
 10
7.844033635764064
 20
9.441855427363304
 30
0.0
 10
7.837817591288815
 20
9.443285436779795
 30
0.0
 10
7.831181328782266
 20
9.445141007084595
 30
0.0
 10
7.823703723260158
 20
9.447729573188155
 30
0.0
 10
7.81512434022925
 20
9.451564465726081
 30
0.0
 10
7.806091693172463
 20
9.457115278307728
 30
0.0
 10
7.797831166876947
 20
9.464182513759146
 30
0.0
 10
7.790921938525997
 20
9.471841195688847
 30
0.0
 10
7.785183428894793
 20
9.479697222694071
 30
0.0
 10
7.780230598263274
 20
9.487809076941525
 30
0.0
 10
7.775834028799391
 20
9.496242186829086
 30
0.0
 10
7.771864110273197
 20
9.504986231308752
 30
0.0
 10
7.769021337659941
 20
9.512012532469729
 30
0.0
 10
7.767478239895437
 20
9.516120953368748
 30
0.0
 10
7.7670772779
 20
9.517188494699999
 30
0.0
 11
7.9027344447
 21
9.4365524864
 31
0.0
 11
7.893734399899999
 21
9.4367567439
 31
0.0
 11
7.885270210399999
 21
9.437091522999999
 31
0.0
 11
7.8772757
 21
9.4375624808
 31
0.0
 11
7.8697441753
 21
9.438170361599999
 31
0.0
 11
7.862732757499999
 21
9.43890473
 31
0.0
 11
7.856241072799999
 21
9.439753080299999
 31
0.0
 11
7.850104516
 21
9.4407292897
 31
0.0
 11
7.8440910404
 21
9.4418829578
 31
0.0
 11
7.8379774815
 21
9.4432968376
 31
0.0
 11
7.8314969312
 21
9.4451188534
 31
0.0
 11
7.824267621299999
 21
9.447640425399999
 31
0.0
 11
7.815763282099999
 21
9.4514819539
 31
0.0
 11
7.806275532099999
 21
9.457343344799999
 31
0.0
 11
7.797743767
 21
9.4645895796
 31
0.0
 11
7.7909268097
 21
9.472104027
 31
0.0
 11
7.785277910099999
 21
9.479791760999999
 31
0.0
 11
7.7803283499
 21
9.487853090199999
 31
0.0
 11
7.7759234148
 21
9.496255980899999
 31
0.0
 11
7.7719493454
 21
9.504957949899999
 31
0.0
 11
7.768287142
 21
9.5139885036
 31
0.0
 11
7.7670772779
 21
9.517188494699999
 31
0.0
  0
SPLINE
  5
96
330
2
100
AcDbEntity
  8
0
100
AcDbSpline
210
0.0
220
0.0
230
1.0
 70
    24
 71
     3
 72
     8
 73
     4
 74
     2
 42
0.0000000001
 43
0.0000000001
 44
0.0000000001
 40
0.0
 40
0.0
 40
0.0
 40
0.0
 40
0.0019339185955316
 40
0.0019339185955316
 40
0.0019339185955316
 40
0.0019339185955316
 10
7.7670772779
 20
9.517188494699999
 30
0.0
 10
7.766854316366666
 20
9.517793348633333
 30
0.0
 10
7.766631354833332
 20
9.518398202566666
 30
0.0
 10
7.766408393299999
 20
9.5190030565
 30
0.0
 11
7.7670772779
 21
9.517188494699999
 31
0.0
 11
7.766408393299999
 21
9.5190030565
 31
0.0
  0
SPLINE
  5
97
330
2
100
AcDbEntity
  8
0
100
AcDbSpline
210
0.0
220
0.0
230
1.0
 70
    24
 71
     3
 72
     8
 73
     4
 74
     2
 42
0.0000000001
 43
0.0000000001
 44
0.0000000001
 40
0.0
 40
0.0
 40
0.0
 40
0.0
 40
0.0023823289493285
 40
0.0023823289493285
 40
0.0023823289493285
 40
0.0023823289493285
 10
11.1928750783
 20
9.549254815699999
 30
0.0
 10
11.1935071409
 20
9.549735551599999
 30
0.0
 10
11.1941392035
 20
9.550216287499999
 30
0.0
 10
11.1947712661
 20
9.550697023399999
 30
0.0
 11
11.1928750783
 21
9.549254815699999
 31
0.0
 11
11.1947712661
 21
9.550697023399999
 31
0.0
  0
SPLINE
  5
98
330
2
100
AcDbEntity
  8
0
100
AcDbSpline
210
0.0
220
0.0
230
1.0
 70
    24
 71
     3
 72
     8
 73
     4
 74
     2
 42
0.0000000001
 43
0.0000000001
 44
0.0000000001
 40
0.0
 40
0.0
 40
0.0
 40
0.0
 40
0.0158191200192116
 40
0.0158191200192116
 40
0.0158191200192116
 40
0.0158191200192116
 10
11.1947712661
 20
9.550697023399999
 30
0.0
 10
11.1989314572
 20
9.553937048233333
 30
0.0
 10
11.2030916483
 20
9.557177073066666
 30
0.0
 10
11.2072518394
 20
9.5604170979
 30
0.0
 11
11.1947712661
 21
9.550697023399999
 31
0.0
 11
11.2072518394
 21
9.5604170979
 31
0.0
  0
SPLINE
  5
99
330
2
100
AcDbEntity
  8
0
100
AcDbSpline
210
0.0
220
0.0
230
1.0
 70
     8
 71
     3
 72
     9
 73
     5
 74
     3
 42
0.0000000001
 43
0.0000000001
 44
0.0000000001
 40
0.0
 40
0.0
 40
0.0
 40
0.0
 40
0.0823978162605039
 40
0.1663867650566273
 40
0.1663867650566273
 40
0.1663867650566273
 40
0.1663867650566273
 10
11.2072518394
 20
9.5604170979
 30
0.0
 10
11.22830822143428
 20
9.578092065121611
 30
0.0
 10
11.27082759208611
 20
9.613783309768049
 30
0.0
 10
11.30892582360535
 20
9.654161755978382
 30
0.0
 10
11.3281571033
 20
9.674544045699999
 30
0.0
 11
11.2072518394
 21
9.5604170979
 31
0.0
 11
11.269336739
 21
9.614591495599999
 31
0.0
 11
11.3281571033
 21
9.674544045699999
 31
0.0
  0
SPLINE
  5
9A
330
2
100
AcDbEntity
  8
0
100
AcDbSpline
210
0.0
220
0.0
230
1.0
 70
     8
 71
     3
 72
    10
 73
     6
 74
     4
 42
0.0000000001
 43
0.0000000001
 44
0.0000000001
 40
0.0
 40
0.0
 40
0.0
 40
0.0
 40
0.0359720995597441
 40
0.1654992675845589
 40
0.2462350087157472
 40
0.2462350087157472
 40
0.2462350087157472
 40
0.2462350087157472
 10
11.3281571033
 20
9.674544045699999
 30
0.0
 10
11.33620154701517
 20
9.683435818111833
 30
0.0
 10
11.37321216244439
 20
9.724344795894555
 30
0.0
 10
11.42498795634969
 20
9.788176069504215
 30
0.0
 10
11.46587970978222
 20
9.845100059466091
 30
0.0
 10
11.4815811287
 20
9.8669574595
 30
0.0
 11
11.3281571033
 21
9.674544045699999
 31
0.0
 11
11.3521859744
 21
9.7013135302
 31
0.0
 11
11.4339873528
 21
9.801741722199999
 31
0.0
 11
11.4815811287
 21
9.8669574595
 31
0.0
  0
SPLINE
  5
9B
330
2
100
AcDbEntity
  8
0
100
AcDbSpline
210
0.0
220
0.0
230
1.0
 70
     8
 71
     3
 72
     9
 73
     5
 74
     3
 42
0.0000000001
 43
0.0000000001
 44
0.0000000001
 40
0.0
 40
0.0
 40
0.0
 40
0.0
 40
0.0554711268780141
 40
0.1363857308285737
 40
0.1363857308285737
 40
0.1363857308285737
 40
0.1363857308285737
 10
11.4815811287
 20
9.8669574595
 30
0.0
 10
11.49211911815388
 20
9.882152856330208
 30
0.0
 10
11.51802865837815
 20
9.919513469293335
 30
0.0
 10
11.54247952089271
 20
9.957847086192328
 30
0.0
 10
11.5569856708
 20
9.9805895638
 30
0.0
 11
11.4815811287
 21
9.8669574595
 31
0.0
 11
11.5129537981
 21
9.9127046073
 31
0.0
 11
11.5569856708
 21
9.9805895638
 31
0.0
  0
SPLINE
  5
9C
330
2
100
AcDbEntity
  8
0
100
AcDbSpline
210
0.0
220
0.0
230
1.0
 70
     8
 71
     3
 72
     9
 73
     5
 74
     3
 42
0.0000000001
 43
0.0000000001
 44
0.0000000001
 40
0.0
 40
0.0
 40
0.0
 40
0.0
 40
0.0572922212404519
 40
0.0632069370614861
 40
0.0632069370614861
 40
0.0632069370614861
 40
0.0632069370614861
 10
11.5569856708
 20
9.9805895638
 30
0.0
 10
11.56706680924323
 20
9.996810151652555
 30
0.0
 10
11.57818870099909
 20
10.01470531531175
 30
0.0
 10
11.58903035774051
 20
10.03277082657489
 30
0.0
 10
11.5900448875
 20
10.034461343
 30
0.0
 11
11.5569856708
 21
9.9805895638
 31
0.0
 11
11.5869988443
 21
10.0293912854
 31
0.0
 11
11.5900448875
 21
10.034461343
 31
0.0
  0
SPLINE
  5
9D
330
2
100
AcDbEntity
  8
0
100
AcDbSpline
210
0.0
220
0.0
230
1.0
 70
    24
 71
     3
 72
     8
 73
     4
 74
     2
 42
0.0000000001
 43
0.0000000001
 44
0.0000000001
 40
0.0
 40
0.0
 40
0.0
 40
0.0
 40
0.0033081307838865
 40
0.0033081307838865
 40
0.0033081307838865
 40
0.0033081307838865
 10
11.5900448875
 20
10.034461343
 30
0.0
 10
11.5906113842
 20
10.03540741456666
 30
0.0
 10
11.5911778809
 20
10.03635348613333
 30
0.0
 10
11.5917443776
 20
10.0372995577
 30
0.0
 11
11.5900448875
 21
10.034461343
 31
0.0
 11
11.5917443776
 21
10.0372995577
 31
0.0
  0
SPLINE
  5
9E
330
2
100
AcDbEntity
  8
0
100
AcDbSpline
210
0.0
220
0.0
230
1.0
 70
    24
 71
     3
 72
     8
 73
     4
 74
     2
 42
0.0000000001
 43
0.0000000001
 44
0.0000000001
 40
0.0
 40
0.0
 40
0.0
 40
0.0
 40
0.0057590050520573
 40
0.0057590050520573
 40
0.0057590050520573
 40
0.0057590050520573
 10
11.0421412065
 20
9.4633527487
 30
0.0
 10
11.0439318665
 20
9.464044603699999
 30
0.0
 10
11.0457225265
 20
9.4647364587
 30
0.0
 10
11.0475131865
 20
9.4654283137
 30
0.0
 11
11.0421412065
 21
9.4633527487
 31
0.0
 11
11.0475131865
 21
9.4654283137
 31
0.0
  0
SPLINE
  5
9F
330
2
100
AcDbEntity
  8
0
100
AcDbSpline
210
0.0
220
0.0
230
1.0
 70
     8
 71
     3
 72
    21
 73
    17
 74
    15
 42
0.0000000001
 43
0.0000000001
 44
0.0000000001
 40
0.0
 40
0.0
 40
0.0
 40
0.0
 40
0.0072974609412586
 40
0.0146990474722187
 40
0.0222046685892936
 40
0.0298180857891815
 40
0.0375515432940204
 40
0.0454183213102854
 40
0.0534315884434822
 40
0.0616043862948
 40
0.0699496190302626
 40
0.078480060198946
 40
0.0872083899157848
 40
0.096150596542537
 40
0.1053384278193645
 40
0.114457594437839
 40
0.114457594437839
 40
0.114457594437839
 40
0.114457594437839
 10
11.0475131865
 20
9.4654283137
 30
0.0
 10
11.04977329856684
 20
9.466327811731227
 30
0.0
 10
11.05432577165722
 20
9.468139642499298
 30
0.0
 10
11.06115100764647
 20
9.471004109144434
 30
0.0
 10
11.06803301633137
 20
9.47400314869391
 30
0.0
 10
11.07497025492671
 20
9.477150452120095
 30
0.0
 10
11.08196979632237
 20
9.480449756921194
 30
0.0
 10
11.08904003608899
 20
9.483909732518043
 30
0.0
 10
11.09618969165772
 20
9.487538657152549
 30
0.0
 10
11.10342699460478
 20
9.491345372271059
 30
0.0
 10
11.11075986401828
 20
9.495338854454491
 30
0.0
 10
11.11819574014169
 20
9.499528505302365
 30
0.0
 10
11.12574323286914
 20
9.503923695404441
 30
0.0
 10
11.13341423918599
 20
9.508540222381563
 30
0.0
 10
11.14113502867627
 20
9.513325561511628
 30
0.0
 10
11.14626610398967
 20
9.516628837605926
 30
0.0
 10
11.148822019
 20
9.5182742808
 30
0.0
 11
11.0475131865
 21
9.4654283137
 31
0.0
 11
11.054285068
 21
9.4681476072
 31
0.0
 11
11.061112446
 21
9.4710059971
 31
0.0
 11
11.0679925448
 21
9.4740057619
 31
0.0
 11
11.0749261137
 21
9.477150558199999
 31
0.0
 11
11.0819215006
 21
9.480447667099999
 31
0.0
 11
11.0889877289
 21
9.483905211599999
 31
0.0
 11
11.0961334462
 21
9.4875316664
 31
0.0
 11
11.1033669185
 21
9.4913358093
 31
0.0
 11
11.1106960347
 21
9.4953266695
 31
0.0
 11
11.1181283318
 21
9.499513480499999
 31
0.0
 11
11.125671052
 21
9.503905645299999
 31
0.0
 11
11.1333340765
 21
9.5085144537
 31
0.0
 11
11.1411403715
 21
9.513359864099999
 31
0.0
 11
11.148822019
 21
9.5182742808
 31
0.0
  0
SPLINE
  5
A0
330
2
100
AcDbEntity
  8
0
100
AcDbSpline
210
0.0
220
0.0
230
1.0
 70
    24
 71
     3
 72
     8
 73
     4
 74
     2
 42
0.0000000001
 43
0.0000000001
 44
0.0000000001
 40
0.0
 40
0.0
 40
0.0
 40
0.0
 40
0.1199882087437447
 40
0.1199882087437447
 40
0.1199882087437447
 40
0.1199882087437447
 10
11.0421412038
 20
9.463352756
 30
0.0
 10
11.07770147566666
 20
9.481659930733332
 30
0.0
 10
11.11326174753333
 20
9.499967105466666
 30
0.0
 10
11.1488220194
 20
9.518274280199999
 30
0.0
 11
11.0421412038
 21
9.463352756
 31
0.0
 11
11.1488220194
 21
9.518274280199999
 31
0.0
  0
SPLINE
  5
A1
330
2
100
AcDbEntity
  8
0
100
AcDbSpline
210
0.0
220
0.0
230
1.0
 70
    24
 71
     3
 72
     8
 73
     4
 74
     2
 42
0.0000000001
 43
0.0000000001
 44
0.0000000001
 40
0.0
 40
0.0
 40
0.0
 40
0.0
 40
0.0359367157236603
 40
0.0359367157236603
 40
0.0359367157236603
 40
0.0359367157236603
 10
11.1525555642
 20
9.520714683199999
 30
0.0
 10
11.1623948437
 20
9.527547160766665
 30
0.0
 10
11.1722341232
 20
9.534379638333334
 30
0.0
 10
11.1820734027
 20
9.5412121159
 30
0.0
 11
11.1525555642
 21
9.520714683199999
 31
0.0
 11
11.1820734027
 21
9.5412121159
 31
0.0
  0
SPLINE
  5
A2
330
2
100
AcDbEntity
  8
0
100
AcDbSpline
210
0.0
220
0.0
230
1.0
 70
    24
 71
     3
 72
     8
 73
     4
 74
     2
 42
0.0000000001
 43
0.0000000001
 44
0.0000000001
 40
0.0
 40
0.0
 40
0.0
 40
0.0
 40
0.013467041842256
 40
0.013467041842256
 40
0.013467041842256
 40
0.013467041842256
 10
11.1820734027
 20
9.5412121159
 30
0.0
 10
11.18567396153333
 20
9.543893015433333
 30
0.0
 10
11.18927452036666
 20
9.546573914966664
 30
0.0
 10
11.1928750792
 20
9.549254814499999
 30
0.0
 11
11.1820734027
 21
9.5412121159
 31
0.0
 11
11.1928750792
 21
9.549254814499999
 31
0.0
  0
SPLINE
  5
A3
330
2
100
AcDbEntity
  8
0
100
AcDbSpline
210
0.0
220
0.0
230
1.0
 70
     8
 71
     3
 72
    15
 73
    11
 74
     9
 42
0.0000000001
 43
0.0000000001
 44
0.0000000001
 40
0.0
 40
0.0
 40
0.0
 40
0.0
 40
0.0006171564467785
 40
0.002256462635073
 40
0.0043511803701083
 40
0.0066579350773486
 40
0.0091239174119891
 40
0.0117276356287633
 40
0.0144467941614124
 40
0.0172546025327365
 40
0.0172546025327365
 40
0.0172546025327365
 40
0.0172546025327365
 10
11.114217897
 20
9.4967189545
 30
0.0
 10
11.11398557492587
 20
9.496586818015666
 30
0.0
 10
11.11313615322365
 20
9.496103697339881
 30
0.0
 10
11.1156359436241
 20
9.497525094582689
 30
0.0
 10
11.11685489177725
 20
9.498227177031306
 30
0.0
 10
11.11900553579074
 20
9.499469585948595
 30
0.0
 10
11.12107849294604
 20
9.500680794967006
 30
0.0
 10
11.12332950243158
 20
9.502007991979562
 30
0.0
 10
11.12565421256078
 20
9.503392004350644
 30
0.0
 10
11.1272323441016
 20
9.504343888067545
 30
0.0
 10
11.1280340661
 20
9.504827463799999
 30
0.0
 11
11.114217897
 21
9.4967189545
 31
0.0
 11
11.1136814471
 21
9.496413825699999
 31
0.0
 11
11.115106063
 21
9.4972248709
 31
0.0
 11
11.1169231387
 21
9.4982670217
 31
0.0
 11
11.1189198372
 21
9.4994221461
 31
0.0
 11
11.1210493582
 21
9.5006656127
 31
0.0
 11
11.1232922098
 21
9.501988097199999
 31
0.0
 11
11.1256283508
 21
9.5033795958
 31
0.0
 11
11.1280340661
 21
9.504827463799999
 31
0.0
  0
SPLINE
  5
A4
330
2
100
AcDbEntity
  8
0
100
AcDbSpline
210
0.0
220
0.0
230
1.0
 70
     8
 71
     3
 72
     9
 73
     5
 74
     3
 42
0.0000000001
 43
0.0000000001
 44
0.0000000001
 40
0.0
 40
0.0
 40
0.0
 40
0.0
 40
0.0028947945516873
 40
0.0058809325802452
 40
0.0058809325802452
 40
0.0058809325802452
 40
0.0058809325802452
 10
11.1280340661
 20
9.504827463799999
 30
0.0
 10
11.1288590726125
 20
9.505327927164834
 30
0.0
 10
11.13053511821492
 20
9.506344645710804
 30
0.0
 10
11.13220384941527
 20
9.507373325768869
 30
0.0
 10
11.1330511745
 20
9.5078956546
 30
0.0
 11
11.1280340661
 21
9.504827463799999
 31
0.0
 11
11.1305073134
 21
9.506331752099999
 31
0.0
 11
11.1330511745
 21
9.5078956546
 31
0.0
  0
SPLINE
  5
A5
330
2
100
AcDbEntity
  8
0
100
AcDbSpline
210
0.0
220
0.0
230
1.0
 70
     8
 71
     3
 72
    16
 73
    12
 74
    10
 42
0.0000000001
 43
0.0000000001
 44
0.0000000001
 40
0.0
 40
0.0
 40
0.0
 40
0.0
 40
0.0030766949722026
 40
0.0062393674491129
 40
0.0094805539525181
 40
0.012797780381519
 40
0.0161848087181
 40
0.019635024032654
 40
0.023141831790644
 40
0.0266987354042255
 40
0.030298924202358
 40
0.030298924202358
 40
0.030298924202358
 40
0.030298924202358
 10
11.1330511745
 20
9.5078956546
 30
0.0
 10
11.13392277959398
 20
9.508436110253056
 30
0.0
 10
11.1356903465777
 20
9.509532124463056
 30
0.0
 10
11.13836562731398
 20
9.511214315204766
 30
0.0
 10
11.14110070280907
 20
9.512951950299049
 30
0.0
 10
11.14388967178498
 20
9.514744143541353
 30
0.0
 10
11.14672788242708
 20
9.51658850918487
 30
0.0
 10
11.14960940178538
 20
9.51848212579696
 30
0.0
 10
11.15252807137443
 20
9.520422221006803
 30
0.0
 10
11.15547889634401
 20
9.522404195319859
 30
0.0
 10
11.15745054907968
 20
9.523747386889365
 30
0.0
 10
11.1584423376
 20
9.5244230444
 30
0.0
 11
11.1330511745
 21
9.5078956546
 31
0.0
 11
11.135664311
 21
9.509519714199999
 31
0.0
 11
11.1383421735
 21
9.511202435099999
 31
0.0
 11
11.141077822
 21
9.5129406863
 31
0.0
 11
11.143868582
 21
9.5147339096
 31
0.0
 11
11.1467086513
 21
9.5165794359
 31
0.0
 11
11.1495919816
 21
9.5184742689
 31
0.0
 11
11.1525126175
 21
9.520415296099999
 31
0.0
 11
11.1554647459
 21
9.522399357899999
 31
0.0
 11
11.1584423376
 21
9.5244230444
 31
0.0
  0
SPLINE
  5
A6
330
2
100
AcDbEntity
  8
0
100
AcDbSpline
210
0.0
220
0.0
230
1.0
 70
     8
 71
     3
 72
    10
 73
     6
 74
     4
 42
0.0000000001
 43
0.0000000001
 44
0.0000000001
 40
0.0
 40
0.0
 40
0.0
 40
0.0
 40
0.0036365122695249
 40
0.0073023781919786
 40
0.0109983590771415
 40
0.0109983590771415
 40
0.0109983590771415
 40
0.0109983590771415
 10
11.1584423376
 20
9.5244230444
 30
0.0
 10
11.15944204181378
 20
9.525108576081551
 30
0.0
 10
11.16144951977842
 20
9.526485173004715
 30
0.0
 10
11.16446008486721
 20
9.528577342128027
 30
0.0
 10
11.16646651007429
 20
9.529990190405737
 30
0.0
 10
11.1674738265
 20
9.530699504299999
 30
0.0
 11
11.1584423376
 21
9.5244230444
 31
0.0
 11
11.1614393154
 21
9.5264827399
 31
0.0
 11
11.1644496787
 21
9.528574697299999
 31
0.0
 11
11.1674738265
 21
9.530699504299999
 31
0.0
  0
SPLINE
  5
A7
330
2
100
AcDbEntity
  8
0
100
AcDbSpline
210
0.0
220
0.0
230
1.0
 70
    24
 71
     3
 72
     8
 73
     4
 74
     2
 42
0.0000000001
 43
0.0000000001
 44
0.0000000001
 40
0.0
 40
0.0
 40
0.0
 40
0.0
 40
0.0037416653506212
 40
0.0037416653506212
 40
0.0037416653506212
 40
0.0037416653506212
 10
11.1674738265
 20
9.530699504299999
 30
0.0
 10
11.16849061826666
 20
9.531421790033332
 30
0.0
 10
11.16950741003333
 20
9.532144075766666
 30
0.0
 10
11.1705242018
 20
9.532866361499999
 30
0.0
 11
11.1674738265
 21
9.530699504299999
 31
0.0
 11
11.1705242018
 21
9.532866361499999
 31
0.0
  0
SPLINE
  5
A8
330
2
100
AcDbEntity
  8
0
100
AcDbSpline
210
0.0
220
0.0
230
1.0
 70
    24
 71
     3
 72
     8
 73
     4
 74
     2
 42
0.0000000001
 43
0.0000000001
 44
0.0000000001
 40
0.0
 40
0.0
 40
0.0
 40
0.0
 40
0.0038043213921105
 40
0.0038043213921105
 40
0.0038043213921105
 40
0.0038043213921105
 10
11.1705242018
 20
9.532866361499999
 30
0.0
 10
11.1715542013
 20
9.533606088966667
 30
0.0
 10
11.1725842008
 20
9.534345816433333
 30
0.0
 10
11.1736142003
 20
9.535085543899999
 30
0.0
 11
11.1705242018
 21
9.532866361499999
 31
0.0
 11
11.1736142003
 21
9.535085543899999
 31
0.0
  0
SPLINE
  5
A9
330
2
100
AcDbEntity
  8
0
100
AcDbSpline
210
0.0
220
0.0
230
1.0
 70
    24
 71
     3
 72
     8
 73
     4
 74
     2
 42
0.0000000001
 43
0.0000000001
 44
0.0000000001
 40
0.0
 40
0.0
 40
0.0
 40
0.0
 40
0.0038835591120247
 40
0.0038835591120247
 40
0.0038835591120247
 40
0.0038835591120247
 10
11.1736142003
 20
9.535085543899999
 30
0.0
 10
11.1746616992
 20
9.535846153733332
 30
0.0
 10
11.1757091981
 20
9.536606763566666
 30
0.0
 10
11.176756697
 20
9.5373673734
 30
0.0
 11
11.1736142003
 21
9.535085543899999
 31
0.0
 11
11.176756697
 21
9.5373673734
 31
0.0
  0
SPLINE
  5
AA
330
2
100
AcDbEntity
  8
0
100
AcDbSpline
210
0.0
220
0.0
230
1.0
 70
     8
 71
     3
 72
    11
 73
     7
 74
     5
 42
0.0000000001
 43
0.0000000001
 44
0.0000000001
 40
0.0
 40
0.0
 40
0.0
 40
0.0
 40
0.0002250028154946
 40
0.0018582882830909
 40
0.0058799475926353
 40
0.0107401771173147
 40
0.0107401771173147
 40
0.0107401771173147
 40
0.0107401771173147
 10
11.1650254081
 20
9.529051473099999
 30
0.0
 10
11.16495586985277
 20
9.529003017953389
 30
0.0
 10
11.16438155655025
 20
9.528602829044626
 30
0.0
 10
11.16774586302955
 20
9.530947914421728
 30
0.0
 10
11.16932572268277
 20
9.532066423435313
 30
0.0
 10
11.17197739584583
 20
9.533956534090721
 30
0.0
 10
11.1734284093
 20
9.5349908154
 30
0.0
 11
11.1650254081
 21
9.529051473099999
 31
0.0
 11
11.1648408009
 21
9.528922840099999
 31
0.0
 11
11.166180283
 21
9.529857403699999
 31
0.0
 11
11.1694697873
 21
9.532171038299999
 31
0.0
 11
11.1734284093
 21
9.5349908154
 31
0.0
  0
SPLINE
  5
AB
330
2
100
AcDbEntity
  8
0
100
AcDbSpline
210
0.0
220
0.0
230
1.0
 70
    24
 71
     3
 72
     8
 73
     4
 74
     2
 42
0.0000000001
 43
0.0000000001
 44
0.0000000001
 40
0.0
 40
0.0
 40
0.0
 40
0.0
 40
0.016042491588595
 40
0.016042491588595
 40
0.016042491588595
 40
0.016042491588595
 10
11.1945936725
 20
9.550561550999999
 30
0.0
 10
11.19881309993333
 20
9.553846693066665
 30
0.0
 10
11.20303252736666
 20
9.557131835133331
 30
0.0
 10
11.2072519548
 20
9.560416977199999
 30
0.0
 11
11.1945936725
 21
9.550561550999999
 31
0.0
 11
11.2072519548
 21
9.560416977199999
 31
0.0
  0
SPLINE
  5
AC
330
2
100
AcDbEntity
  8
0
100
AcDbSpline
210
0.0
220
0.0
230
1.0
 70
     8
 71
     3
 72
    29
 73
    25
 74
    23
 42
0.0000000001
 43
0.0000000001
 44
0.0000000001
 40
0.0
 40
0.0
 40
0.0
 40
0.0
 40
0.0021739497814505
 40
0.0061383191831284
 40
0.0100657792357151
 40
0.0139528673421794
 40
0.0177961214459551
 40
0.0215920793222094
 40
0.0253372793019266
 40
0.0290282594230261
 40
0.0326615661730356
 40
0.036233937874047
 40
0.039741776015026
 40
0.0431813552537352
 40
0.0465490007775987
 40
0.049841130459372
 40
0.0530542669798442
 40
0.0561838993978087
 40
0.059147675863773
 40
0.0617500095799906
 40
0.0634369880948317
 40
0.0639831543991051
 40
0.0641872362237327
 40
0.0643506120307168
 40
0.0643506120307168
 40
0.0643506120307168
 40
0.0643506120307168
 10
11.5917389927
 20
10.0372936073
 30
0.0
 10
11.59211737005753
 20
10.03791169683615
 30
0.0
 10
11.59318574845891
 20
10.03965692153685
 30
0.0
 10
11.59510395300453
 20
10.04241346840691
 30
0.0
 10
11.59753676366539
 20
10.04549801445265
 30
0.0
 10
11.60013345851433
 20
10.0483925491871
 30
0.0
 10
11.60287205590111
 20
10.0510907054086
 30
0.0
 10
11.60573483452635
 20
10.05358527653396
 30
0.0
 10
11.60870249574005
 20
10.05587167639121
 30
0.0
 10
11.61175595664158
 20
10.05794702408758
 30
0.0
 10
11.61487617756644
 20
10.05981038452764
 30
0.0
 10
11.61804436604469
 20
10.06146258141533
 30
0.0
 10
11.62124206686988
 20
10.06290613600216
 30
0.0
 10
11.62445126958937
 20
10.06414518553094
 30
0.0
 10
11.62765467559377
 20
10.06518545560863
 30
0.0
 10
11.63083590574959
 20
10.06603415334958
 30
0.0
 10
11.63397925818558
 20
10.06669974341336
 30
0.0
 10
11.63704412502949
 20
10.06718779280682
 30
0.0
 10
11.63992653544521
 20
10.06750370997409
 30
0.0
 10
11.6423398991402
 20
10.06765987060073
 30
0.0
 10
11.643951183332
 20
10.06770878060038
 30
0.0
 10
11.64476353801218
 20
10.06771881303487
 30
0.0
 10
11.64506807356426
 20
10.06772081763706
 30
0.0
 10
11.64519055913426
 20
10.06772112932156
 30
0.0
 10
11.6452450176
 20
10.0677212679
 30
0.0
 11
11.5917389927
 21
10.0372936073
 31
0.0
 11
11.5928868411
 21
10.0391398201
 31
0.0
 11
11.5951427952
 21
10.0423997121
 31
0.0
 11
11.5975770861
 21
10.0454817845
 31
0.0
 11
11.6001722523
 21
10.0483756688
 31
0.0
 11
11.6029101098
 21
10.0510728411
 31
0.0
 11
11.6057719544
 21
10.0535666618
 31
0.0
 11
11.6087387645
 21
10.0558523916
 31
0.0
 11
11.611791399
 21
10.0579271824
 31
0.0
 11
11.6149107962
 21
10.0597900509
 31
0.0
 11
11.6180783224
 21
10.0614419036
 31
0.0
 11
11.6212754758
 21
10.0628852118
 31
0.0
 11
11.6244842008
 21
10.0641240779
 31
0.0
 11
11.6276871921
 21
10.065164214
 31
0.0
 11
11.6308680705
 21
10.066012819
 31
0.0
 11
11.63401151
 21
10.0666784273
 31
0.0
 11
11.6371022012
 21
10.0671705929
 31
0.0
 11
11.6400483362
 21
10.0674934853
 31
0.0
 11
11.6426452369
 21
10.0676615553
 31
0.0
 11
11.6443314407
 21
10.0677126753
 31
0.0
 11
11.6448775649
 21
10.0677194569
 31
0.0
 11
11.6450816426
 21
10.0677207544
 31
0.0
 11
11.6452450176
 21
10.0677212679
 31
0.0
  0
SPLINE
  5
AD
330
2
100
AcDbEntity
  8
0
100
AcDbSpline
210
0.0
220
0.0
230
1.0
 70
     8
 71
     3
 72
    36
 73
    32
 74
    30
 42
0.0000000001
 43
0.0000000001
 44
0.0000000001
 40
0.0
 40
0.0
 40
0.0
 40
0.0
 40
0.0004968574134725
 40
0.0010361209564195
 40
0.0015816916083057
 40
0.002133444063901
 40
0.0026912523145862
 40
0.0032549901403399
 40
0.0038235912967219
 40
0.0043622748387428
 40
0.0048541349361723
 40
0.0053000324706484
 40
0.0057008262053943
 40
0.0060573702614888
 40
0.0063705125782884
 40
0.0066410916211907
 40
0.0068699481140036
 40
0.0070579070428743
 40
0.0072057786281962
 40
0.0073870182023493
 40
0.0075253356921751
 40
0.0077797817448415
 40
0.0081478018540461
 40
0.0086268178656305
 40
0.0092142654296594
 40
0.0099076287779637
 40
0.0107044732296921
 40
0.0116026632279516
 40
0.0126020333311141
 40
0.0137018561285331
 40
0.0145712586522356
 40
0.0145712586522356
 40
0.0145712586522356
 40
0.0145712586522356
 10
11.8708231582
 20
9.519003038399999
 30
0.0
 10
11.870880083427
 20
9.519158567276001
 30
0.0
 10
11.87099879237458
 20
9.519482899213866
 30
0.0
 10
11.87118114229408
 20
9.519977592078756
 30
0.0
 10
11.87137069667473
 20
9.520489130106881
 30
0.0
 10
11.87156335647111
 20
9.521006108815631
 30
0.0
 10
11.8717590593722
 20
9.521528415046843
 30
0.0
 10
11.87195766328831
 20
9.522055630895952
 30
0.0
 10
11.87215491769316
 20
9.52257654198355
 30
0.0
 10
11.87234452645257
 20
9.523074727956752
 30
0.0
 10
11.87252043133883
 20
9.523534365298731
 30
0.0
 10
11.87268070965083
 20
9.523950767860494
 30
0.0
 10
11.87282553849833
 20
9.524324784902486
 30
0.0
 10
11.87295508325208
 20
9.52465726594708
 30
0.0
 10
11.87306950136015
 20
9.524949056766432
 30
0.0
 10
11.87316894285379
 20
9.525201001735942
 30
0.0
 10
11.87325355109814
 20
9.525413940162694
 30
0.0
 10
11.87332346572131
 20
9.525588703372967
 30
0.0
 10
11.87338786140412
 20
9.525748578485874
 30
0.0
 10
11.87344653720469
 20
9.525892918349581
 30
0.0
 10
11.87351950046641
 20
9.526069794930265
 30
0.0
 10
11.87361659461805
 20
9.526304066016757
 30
0.0
 10
11.87375783342276
 20
9.526642974248986
 30
0.0
 10
11.87394246298993
 20
9.527084052718834
 30
0.0
 10
11.87416971624275
 20
9.52762485420663
 30
0.0
 10
11.87443874425475
 20
9.528263017252589
 30
0.0
 10
11.87474870313472
 20
9.528996333531502
 30
0.0
 10
11.87509900741967
 20
9.529823336094512
 30
0.0
 10
11.87548923533624
 20
9.530743106865861
 30
0.0
 10
11.87587603959434
 20
9.531653906340356
 30
0.0
 10
11.87613270679408
 20
9.532258053664223
 30
0.0
 10
11.876246024
 20
9.532524781499999
 30
0.0
 11
11.8708231582
 21
9.519003038399999
 31
0.0
 11
11.8709941048
 21
9.519469562299999
 31
0.0
 11
11.8711805586
 21
9.519975566399999
 31
0.0
 11
11.8713701376
 21
9.5204871396
 31
0.0
 11
11.8715628038
 21
9.5210041604
 31
0.0
 11
11.8717585186
 21
9.5215265068
 31
0.0
 11
11.8719572426
 21
9.5220540569
 31
0.0
 11
11.8721586025
 21
9.5225858101
 31
0.0
 11
11.8723502394
 21
9.5230892535
 31
0.0
 11
11.8725260619
 21
9.523548614799999
 31
0.0
 11
11.8726862574
 21
9.5239647422
 31
0.0
 11
11.8728310024
 21
9.524338486099999
 31
0.0
 11
11.872960463
 21
9.524670696299999
 31
0.0
 11
11.8730747968
 21
9.5249622197
 31
0.0
 11
11.8731741525
 21
9.525213897
 31
0.0
 11
11.8732586762
 21
9.5254265729
 31
0.0
 11
11.8733285056
 21
9.525601079099999
 31
0.0
 11
11.8733837715
 21
9.5257382348
 31
0.0
 11
11.873452088
 21
9.5259061057
 31
0.0
 11
11.8735047639
 21
9.526034000099999
 31
0.0
 11
11.8736021625
 21
9.526269066699999
 31
0.0
 11
11.8737436779
 21
9.526608790399999
 31
0.0
 11
11.8739285986
 21
9.527050673499999
 31
0.0
 11
11.8741561339
 21
9.527592265899999
 31
0.0
 11
11.8744254386
 21
9.528231192899999
 31
0.0
 11
11.8747356388
 21
9.5289651799
 31
0.0
 11
11.8750859284
 21
9.529792248499999
 31
0.0
 11
11.8754762094
 21
9.530712260099999
 31
0.0
 11
11.8759060879
 21
9.531724591399999
 31
0.0
 11
11.876246024
 21
9.532524781499999
 31
0.0
  0
SPLINE
  5
AE
330
2
100
AcDbEntity
  8
0
100
AcDbSpline
210
0.0
220
0.0
230
1.0
 70
     8
 71
     3
 72
    50
 73
    46
 74
    44
 42
0.0000000001
 43
0.0000000001
 44
0.0000000001
 40
0.0
 40
0.0
 40
0.0
 40
0.0
 40
0.0000439092554765
 40
0.0042134328000857
 40
0.0103118417283079
 40
0.0176926190911883
 40
0.0257026134385022
 40
0.0340709375309156
 40
0.0427762973592068
 40
0.0518054388034934
 40
0.0611481403378257
 40
0.0707910176976317
 40
0.0807199820849102
 40
0.0909425361826525
 40
0.1014460458401774
 40
0.1122143993993553
 40
0.1232365605277058
 40
0.1345020976917867
 40
0.1459992645238269
 40
0.1577216039700771
 40
0.1696642997351587
 40
0.1818227229492678
 40
0.1941923457642807
 40
0.206768682270885
 40
0.2195472724573054
 40
0.2325243609704072
 40
0.2456969698051701
 40
0.2590631787624042
 40
0.2726280887033447
 40
0.2863998738001567
 40
0.3003867469951393
 40
0.3145969318516106
 40
0.3290386842366721
 40
0.343721123417277
 40
0.3586541865050565
 40
0.3738478925708226
 40
0.3893115671107543
 40
0.4050548125267616
 40
0.4210871737636595
 40
0.4374185775788181
 40
0.4540593158887969
 40
0.4710203857009709
 40
0.488312891749643
 40
0.5059476900026155
 40
0.5193621330516422
 40
0.5193621330516422
 40
0.5193621330516422
 40
0.5193621330516422
 10
11.8693772274
 20
9.5185648732
 30
0.0
 10
11.86938392552335
 20
9.518577887034341
 30
0.0
 10
11.87002666228358
 20
9.51982666513061
 30
0.0
 10
11.87158232590151
 20
9.522891836929664
 30
0.0
 10
11.87418472875494
 20
9.528167993781153
 30
0.0
 10
11.8772704932238
 20
9.534632564647083
 30
0.0
 10
11.88058352086244
 20
9.541826277155108
 30
0.0
 10
11.88397748175986
 20
9.549467958676729
 30
0.0
 10
11.88740498114651
 20
9.557465630893908
 30
0.0
 10
11.8908568412187
 20
9.565805446338464
 30
0.0
 10
11.8943266388054
 20
9.574475336119718
 30
0.0
 10
11.89780944742963
 20
9.583462440283131
 30
0.0
 10
11.90130395581441
 20
9.592758973222554
 30
0.0
 10
11.9048101990449
 20
9.602357073826699
 30
0.0
 10
11.9083289992577
 20
9.612248044431373
 30
0.0
 10
11.91186111927642
 20
9.622416832729978
 30
0.0
 10
11.91540595608873
 20
9.632849826286452
 30
0.0
 10
11.91895677429863
 20
9.643537095447884
 30
0.0
 10
11.92250892730854
 20
9.65446959074072
 30
0.0
 10
11.92605840397021
 20
9.665640029921407
 30
0.0
 10
11.9296023095998
 20
9.677043263452674
 30
0.0
 10
11.93313817620687
 20
9.688674688693723
 30
0.0
 10
11.93666381904842
 20
9.700529739923116
 30
0.0
 10
11.94017729119041
 20
9.712603850350321
 30
0.0
 10
11.94367697226418
 20
9.724892639828622
 30
0.0
 10
11.94716144134094
 20
9.737392209420786
 30
0.0
 10
11.95062948493233
 20
9.750099494659425
 30
0.0
 10
11.95408088104582
 20
9.763014233541451
 30
0.0
 10
11.95751645383622
 20
9.776139747717651
 30
0.0
 10
11.96093790931256
 20
9.789482635135467
 30
0.0
 10
11.96434720659507
 20
9.803050519355148
 30
0.0
 10
11.9677462776795
 20
9.816851074345144
 30
0.0
 10
11.97113722803958
 20
9.830892258634829
 30
0.0
 10
11.9745218894823
 20
9.845182700605329
 30
0.0
 10
11.97790140722455
 20
9.85973180207104
 30
0.0
 10
11.98127704549498
 20
9.874549008123233
 30
0.0
 10
11.98464997880247
 20
9.8896436727917
 30
0.0
 10
11.98802134820333
 20
9.905024998195033
 30
0.0
 10
11.99139232667353
 20
9.920702387741606
 30
0.0
 10
11.99476418709572
 20
9.936685462775475
 30
0.0
 10
11.99813816488934
 20
9.952984350288732
 30
0.0
 10
12.00151520760653
 20
9.969609646010205
 30
0.0
 10
12.00489477457536
 20
9.986572415784692
 30
0.0
 10
12.00798940964482
 20
10.00238643109353
 30
0.0
 10
12.00993826227592
 20
10.01255104395573
 30
0.0
 10
12.0107802401
 20
10.01694254
 30
0.0
 11
11.8693772274
 21
9.5185648732
 31
0.0
 11
11.869397321
 21
9.518603915099999
 31
0.0
 11
11.8712855636
 21
9.5223213694
 31
0.0
 11
11.8739849874
 21
9.5277897972
 31
0.0
 11
11.877165438
 21
9.534450173199999
 31
0.0
 11
11.8805173485
 21
9.541725109999999
 31
0.0
 11
11.8839154811
 21
9.5493724326
 31
0.0
 11
11.8873461192
 21
9.5573733083
 31
0.0
 11
11.8908007778
 21
9.565715414099999
 31
0.0
 11
11.8942738083
 21
9.5743885987
 31
0.0
 11
11.897759954
 21
9.5833792534
 31
0.0
 11
11.9012552852
 21
9.592672637799999
 31
0.0
 11
11.9047647044
 21
9.602273918399999
 31
0.0
 11
11.9082872004
 21
9.6121691565
 31
0.0
 11
11.9118219893
 21
9.622340818399999
 31
0.0
 11
11.9153682124
 21
9.6327769258
 31
0.0
 11
11.9189207479
 21
9.643467661
 31
0.0
 11
11.9224740071
 21
9.6544019737
 31
0.0
 11
11.9260244373
 21
9.6655737098
 31
0.0
 11
11.9295692735
 21
9.676978187799999
 31
0.0
 11
11.9331060612
 21
9.688610831
 31
0.0
 11
11.9366326174
 21
9.7004670939
 31
0.0
 11
11.940147003
 21
9.712542413099999
 31
0.0
 11
11.9436475058
 21
9.724832199399999
 31
0.0
 11
11.9471326914
 21
9.737332531699999
 31
0.0
 11
11.9506013691
 21
9.7500402419
 31
0.0
 11
11.9540527973
 21
9.762953149599999
 31
0.0
 11
11.9574881594
 21
9.776075842499999
 31
0.0
 11
11.9609094235
 21
9.789415895599999
 31
0.0
 11
11.9643185464
 21
9.802980942699999
 31
0.0
 11
11.967717479
 21
9.816778645799999
 31
0.0
 11
11.9711081775
 21
9.830816714599999
 31
0.0
 11
11.9744924157
 21
9.845103805
 31
0.0
 11
11.9778715534
 21
9.859649519199999
 31
0.0
 11
11.9812468824
 21
9.8744635618
 31
0.0
 11
11.984619514
 21
9.8895549695
 31
0.0
 11
11.9879906103
 21
9.9049330541
 31
0.0
 11
11.9913613225
 21
9.920607074199999
 31
0.0
 11
11.9947328937
 21
9.936586662999999
 31
0.0
 11
11.9981065008
 21
9.9528818447
 31
0.0
 11
12.001482948
 21
9.9695034419
 31
0.0
 11
12.0048629285
 21
9.986462406999999
 31
0.0
 11
12.0082470664
 21
10.0037694495
 31
0.0
 11
12.0107802401
 21
10.01694254
 31
0.0
  0
SPLINE
  5
AF
330
2
100
AcDbEntity
  8
0
100
AcDbSpline
210
0.0
220
0.0
230
1.0
 70
     8
 71
     3
 72
    12
 73
     8
 74
     6
 42
0.0000000001
 43
0.0000000001
 44
0.0000000001
 40
0.0
 40
0.0
 40
0.0
 40
0.0
 40
0.0057286644836355
 40
0.0258044251442478
 40
0.0458800387531682
 40
0.0659555128168777
 40
0.0860308406846951
 40
0.0860308406846951
 40
0.0860308406846951
 40
0.0860308406846951
 10
12.0107804567
 20
10.0169428521
 30
0.0
 10
12.01119079905344
 20
10.01880814732935
 30
0.0
 10
12.01303916154231
 20
10.0272102576738
 30
0.0
 10
12.01982675392756
 20
10.04130886739849
 30
0.0
 10
12.0339144516819
 20
10.05595158336958
 30
0.0
 10
12.05200835284899
 20
10.06582767276229
 30
0.0
 10
12.06544767112794
 20
10.06709028011989
 30
0.0
 10
12.0721673058
 20
10.0677215815
 30
0.0
 11
12.0107804567
 21
10.0169428521
 31
0.0
 11
12.0121085366
 21
10.0225154458
 31
0.0
 11
12.0206897196
 21
10.0406648112
 31
0.0
 11
12.0345822088
 21
10.0551571887
 31
0.0
 11
12.0523525893
 21
10.0644973298
 31
0.0
 11
12.0721673058
 21
10.0677215815
 31
0.0
  0
SPLINE
  5
B0
330
2
100
AcDbEntity
  8
0
100
AcDbSpline
210
0.0
220
0.0
230
1.0
 70
    24
 71
     3
 72
     8
 73
     4
 74
     2
 42
0.0000000001
 43
0.0000000001
 44
0.0000000001
 40
0.0
 40
0.0
 40
0.0
 40
0.0
 40
0.1212404916571005
 40
0.1212404916571005
 40
0.1212404916571005
 40
0.1212404916571005
 10
10.9215336689
 20
9.4368982248
 30
0.0
 10
10.9610318182
 20
9.445450824366666
 30
0.0
 10
11.0005299675
 20
9.454003423933333
 30
0.0
 10
11.0400281168
 20
9.462556023499999
 30
0.0
 11
10.9215336689
 21
9.4368982248
 31
0.0
 11
11.0400281168
 21
9.462556023499999
 31
0.0
  0
SPLINE
  5
B1
330
2
100
AcDbEntity
  8
0
100
AcDbSpline
210
0.0
220
0.0
230
1.0
 70
     8
 71
     3
 72
    81
 73
    77
 74
    75
 42
0.0000000001
 43
0.0000000001
 44
0.0000000001
 40
0.0
 40
0.0
 40
0.0
 40
0.0
 40
0.0000213794506148
 40
0.0001733645132078
 40
0.000318678819453
 40
0.0004599352180746
 40
0.0005981834720938
 40
0.0007341700712914
 40
0.0008687645515878
 40
0.0010028748065849
 40
0.0011372446604911
 40
0.0012724936823393
 40
0.0014091321987165
 40
0.0015449445001047
 40
0.0016922103971165
 40
0.0018722495353339
 40
0.0020839894108594
 40
0.0023262941079811
 40
0.0024585302104095
 40
0.0025979409733168
 40
0.0027443563354431
 40
0.0028975978288899
 40
0.0030574778939097
 40
0.0032237992588164
 40
0.0033963539582735
 40
0.0035749224305525
 40
0.0037592731212364
 40
0.0039491610775667
 40
0.0041443271618714
 40
0.0043444975389474
 40
0.0045493821954983
 40
0.0047586747242981
 40
0.0049720449334784
 40
0.005189142947028
 40
0.0054055678204448
 40
0.0055878407080299
 40
0.005729473075279
 40
0.0058959326877059
 40
0.0060958592280252
 40
0.0062311641425252
 40
0.0063958470648482
 40
0.0065891669381514
 40
0.0068105232407963
 40
0.0070594454811439
 40
0.0073355815260534
 40
0.0076386829911947
 40
0.0079685911805517
 40
0.008325223088583
 40
0.0087085567358894
 40
0.0091186188769123
 40
0.0095554724501804
 40
0.010019205782533
 40
0.010509922240789
 40
0.0110277320529068
 40
0.0115727436382823
 40
0.0121450578627713
 40
0.0127447616439666
 40
0.0133719233233778
 40
0.0140265887628375
 40
0.0147087782162629
 40
0.0154018153573146
 40
0.016002241305357
 40
0.01648978300848
 40
0.0168631344859575
 40
0.0171210315078425
 40
0.0172623358180282
 40
0.0175443928283776
 40
0.0178732376500563
 40
0.018317492444733
 40
0.0188746738991672
 40
0.0195413009896623
 40
0.0203127770498925
 40
0.021183237097779
 40
0.0221453358038717
 40
0.0231899429952472
 40
0.0240350212196702
 40
0.0240350212196702
 40
0.0240350212196702
 40
0.0240350212196702
 10
10.9123674656
 20
9.436471581499999
 30
0.0
 10
10.91237458773776
 20
9.43647183039712
 30
0.0
 10
10.91243234066928
 20
9.436473848686974
 30
0.0
 10
10.91253850055692
 20
9.436477583927516
 30
0.0
 10
10.91268459641506
 20
9.436482779475159
 30
0.0
 10
10.9128261010106
 20
9.436487863888487
 30
0.0
 10
10.9129645445532
 20
9.436492888514258
 30
0.0
 10
10.91310059264616
 20
9.436497873257373
 30
0.0
 10
10.91323590141036
 20
9.436502879012596
 30
0.0
 10
10.91336829481026
 20
9.43650781931897
 30
0.0
 10
10.91350978325757
 20
9.436513155541966
 30
0.0
 10
10.91361868478253
 20
9.436517282603249
 30
0.0
 10
10.91385399768176
 20
9.436526323171655
 30
0.0
 10
10.91361343713392
 20
9.436517089607841
 30
0.0
 10
10.91348967283286
 20
9.436512409726409
 30
0.0
 10
10.91329959686721
 20
9.436505269582291
 30
0.0
 10
10.91309200062757
 20
9.436497594135927
 30
0.0
 10
10.9128956563429
 20
9.436490444393914
 30
0.0
 10
10.91272460942771
 20
9.436484301634814
 30
0.0
 10
10.91258530758709
 20
9.4364793478983
 30
0.0
 10
10.91243905255988
 20
9.436474201454663
 30
0.0
 10
10.91228596327281
 20
9.4364688744
 30
0.0
 10
10.91212624423461
 20
9.436463381441198
 30
0.0
 10
10.91196008776866
 20
9.436457737613421
 30
0.0
 10
10.91178770318146
 20
9.43645195806887
 30
0.0
 10
10.9116093093803
 20
9.436446058358718
 30
0.0
 10
10.91142513825345
 20
9.436440054088707
 30
0.0
 10
10.91123543421895
 20
9.436433961520666
 30
0.0
 10
10.91104045784849
 20
9.436427796576506
 30
0.0
 10
10.91084047697465
 20
9.436421575861277
 30
0.0
 10
10.9106358051709
 20
9.436415316055374
 30
0.0
 10
10.91042665922683
 20
9.436409031539238
 30
0.0
 10
10.91021372056379
 20
9.436402748331365
 30
0.0
 10
10.90999733432509
 20
9.436396485950011
 30
0.0
 10
10.90979514256394
 20
9.436390740794358
 30
0.0
 10
10.90960628627209
 20
9.436385485065585
 30
0.0
 10
10.90946911093641
 20
9.436381701796939
 30
0.0
 10
10.90918346007748
 20
9.43637399853819
 30
0.0
 10
10.90949165734691
 20
9.436382309460976
 30
0.0
 10
10.90963004251244
 20
9.4363861329164
 30
0.0
 10
10.90980263580143
 20
9.43639093464262
 30
0.0
 10
10.90999287520484
 20
9.436396326195316
 30
0.0
 10
10.91021490325503
 20
9.436402727831286
 30
0.0
 10
10.91046330624908
 20
9.436410039375207
 30
0.0
 10
10.91073932673115
 20
9.436418345339953
 30
0.0
 10
10.91104220310102
 20
9.436427680457075
 30
0.0
 10
10.91137192752113
 20
9.436438105960077
 30
0.0
 10
10.91172836154754
 20
9.436449684173165
 30
0.0
 10
10.91211149109456
 20
9.436462487065245
 30
0.0
 10
10.91252133140802
 20
9.436476592179195
 30
0.0
 10
10.9129579397848
 20
9.436492085086907
 30
0.0
 10
10.91342139700879
 20
9.436509056990498
 30
0.0
 10
10.91391179964167
 20
9.436527606264334
 30
0.0
 10
10.91442925045876
 20
9.43654783732002
 30
0.0
 10
10.91497385048327
 20
9.436569860263766
 30
0.0
 10
10.91554569431431
 20
9.436593792016461
 30
0.0
 10
10.91614485494944
 20
9.436619753556762
 30
0.0
 10
10.91677141727802
 20
9.436647874205103
 30
0.0
 10
10.91742532024181
 20
9.436678280255698
 30
0.0
 10
10.91810141453732
 20
9.436710863332262
 30
0.0
 10
10.91875824296634
 20
9.43674365344434
 30
0.0
 10
10.91935389902437
 20
9.436774379321319
 30
0.0
 10
10.91983270059243
 20
9.436799706853928
 30
0.0
 10
10.92022417251015
 20
9.436820882228527
 30
0.0
 10
10.92044025592531
 20
9.436832699755722
 30
0.0
 10
10.92076864880443
 20
9.436850877330556
 30
0.0
 10
10.92028380998633
 20
9.436824081136808
 30
0.0
 10
10.92002559355688
 20
9.436810173071096
 30
0.0
 10
10.91954635482274
 20
9.436784554821446
 30
0.0
 10
10.91900478984082
 20
9.436756438142131
 30
0.0
 10
10.91833573270724
 20
9.436722667074207
 30
0.0
 10
10.91756872245253
 20
9.436685400144714
 30
0.0
 10
10.91670113240387
 20
9.436645032726415
 30
0.0
 10
10.91574317061284
 20
9.436602738771725
 30
0.0
 10
10.91479335757017
 20
9.436563053902165
 30
0.0
 10
10.91416394143042
 20
9.436538623373447
 30
0.0
 10
10.9138824629
 20
9.4365276979
 30
0.0
 11
10.9123674656
 21
9.436471581499999
 31
0.0
 11
10.912388832
 21
9.4364723284
 31
0.0
 11
10.9125407231
 21
9.4364776719
 31
0.0
 11
10.9126859456
 21
9.436482836499999
 31
0.0
 11
10.9128271109
 21
9.4364879088
 31
0.0
 11
10.9129652682
 21
9.436492922799999
 31
0.0
 11
10.9131011636
 21
9.436497902299999
 31
0.0
 11
10.9132356661
 21
9.4365028774
 31
0.0
 11
10.913369683
 21
9.4365078805
 31
0.0
 11
10.9135039576
 21
9.436512939099999
 31
0.0
 11
10.913639109
 21
9.4365180769
 31
0.0
 11
10.9137756471
 21
9.4365233144
 31
0.0
 11
10.9136399343
 21
9.4365181166
 31
0.0
 11
10.9134927743
 21
9.4365125328
 31
0.0
 11
10.9133128617
 21
9.436505783899999
 31
0.0
 11
10.9131012666
 21
9.4364979552
 31
0.0
 11
10.9128591223
 21
9.4364891402
 31
0.0
 11
10.9127269714
 21
9.436484394
 31
0.0
 11
10.9125876487
 21
9.436479439599999
 31
0.0
 11
10.9124413239
 21
9.436474290699999
 31
0.0
 11
10.9122881751
 21
9.436468961499999
 31
0.0
 11
10.9121283895
 21
9.436463466299999
 31
0.0
 11
10.911962164
 21
9.436457820099999
 31
0.0
 11
10.9117897062
 21
9.4364520381
 31
0.0
 11
10.9116112353
 21
9.4364461358
 31
0.0
 11
10.9114269825
 21
9.436440128899999
 31
0.0
 11
10.9112371924
 21
9.436434033499999
 31
0.0
 11
10.9110421238
 21
9.4364278657
 31
0.0
 11
10.9108420502
 21
9.436421642
 31
0.0
 11
10.9106372613
 21
9.436415378699999
 31
0.0
 11
10.9104280632
 21
9.436409092399999
 31
0.0
 11
10.9102147858
 21
9.436402799799999
 31
0.0
 11
10.9099977787
 21
9.4363965176
 31
0.0
 11
10.909781441
 21
9.4363903755
 31
0.0
 11
10.9095992389
 21
9.436385296099999
 31
0.0
 11
10.9094576599
 21
9.4363814084
 31
0.0
 11
10.9092912612
 21
9.436376905599999
 31
0.0
 11
10.9094911145
 21
9.436382316699999
 31
0.0
 11
10.9096263683
 21
9.436386035499999
 31
0.0
 11
10.9097909873
 21
9.436390623499999
 31
0.0
 11
10.9099842297
 21
9.436396095999999
 31
0.0
 11
10.910205494
 21
9.436402477399999
 31
0.0
 11
10.9104543085
 21
9.436409800399999
 31
0.0
 11
10.9107303196
 21
9.436418106299999
 31
0.0
 11
10.9110332772
 21
9.436427443899999
 31
0.0
 11
10.9113630206
 21
9.43643787
 31
0.0
 11
10.9117194645
 21
9.436449448599999
 31
0.0
 11
10.9121025843
 21
9.4364622511
 31
0.0
 11
10.9125124038
 21
9.436476355599999
 31
0.0
 11
10.9129489826
 21
9.436491847399999
 31
0.0
 11
10.9134124053
 21
9.4365088181
 31
0.0
 11
10.9139027711
 21
9.436527365999999
 31
0.0
 11
10.9144201856
 21
9.4365475956
 31
0.0
 11
10.9149647521
 21
9.436569617299999
 31
0.0
 11
10.9155365658
 21
9.436593547699999
 31
0.0
 11
10.9161357074
 21
9.436619508599999
 31
0.0
 11
10.9167622384
 21
9.436647627599999
 31
0.0
 11
10.9174161972
 21
9.4366780369
 31
0.0
 11
10.9180975959
 21
9.436710873799999
 31
0.0
 11
10.9187897708
 21
9.4367454337
 31
0.0
 11
10.9193894001
 21
9.4367763533
 31
0.0
 11
10.9198762601
 21
9.436802126399999
 31
0.0
 11
10.920249068
 21
9.4368222658
 31
0.0
 11
10.9205065785
 21
9.4368363802
 31
0.0
 11
10.9206476672
 21
9.436844183199999
 31
0.0
 11
10.9203660371
 21
9.4368286705
 31
0.0
 11
10.9200376758
 21
9.4368108443
 31
0.0
 11
10.9195940505
 21
9.436787202899999
 31
0.0
 11
10.919037621
 21
9.436758265299999
 31
0.0
 11
10.9183718403
 21
9.436724683499999
 31
0.0
 11
10.9176012739
 21
9.4366872304
 31
0.0
 11
10.916731754
 21
9.4366467849
 31
0.0
 11
10.9157705932
 21
9.4366043133
 31
0.0
 11
10.9147268907
 21
9.436560847499999
 31
0.0
 11
10.9138824629
 21
9.4365276979
 31
0.0
  0
SPLINE
  5
B2
330
2
100
AcDbEntity
  8
0
100
AcDbSpline
210
0.0
220
0.0
230
1.0
 70
     8
 71
     3
 72
    76
 73
    72
 74
    70
 42
0.0000000001
 43
0.0000000001
 44
0.0000000001
 40
0.0
 40
0.0
 40
0.0
 40
0.0
 40
0.0001374267493209
 40
0.000574280322589
 40
0.0010380136549416
 40
0.0015287301131976
 40
0.0020465399253154
 40
0.0025915515106909
 40
0.0031638657351799
 40
0.0037635695163752
 40
0.0043907311957864
 40
0.0050453966352461
 40
0.0057275860886715
 40
0.0064206232297232
 40
0.0070210491777655
 40
0.0075085908808886
 40
0.0078819423583661
 40
0.0081398393802511
 40
0.0082811436904368
 40
0.0085632007007861
 40
0.0088920455224648
 40
0.0093363003171416
 40
0.0098934817715758
 40
0.0105601088620709
 40
0.0113315849223011
 40
0.0122020449701876
 40
0.0131641436762804
 40
0.0142087508676558
 40
0.0153245258713802
 40
0.0164973439614434
 40
0.0177132596681539
 40
0.0189585418587924
 40
0.0202109698479815
 40
0.0214425913123891
 40
0.0226208699499889
 40
0.0237133401961751
 40
0.0246980594956389
 40
0.025560442323573
 40
0.0260705544320992
 40
0.0266880465040948
 40
0.0285609799252284
 40
0.0315057879735366
 40
0.0349854483057115
 40
0.038562741142684
 40
0.042119326777704
 40
0.0456174909668846
 40
0.049051214271524
 40
0.0524304207688634
 40
0.0557616581504125
 40
0.0590487533110084
 40
0.0622931616109256
 40
0.0654700447254273
 40
0.0685500883209381
 40
0.0715305125647251
 40
0.0743998675877424
 40
0.0771297507212313
 40
0.0794826310120184
 40
0.0809218597161755
 40
0.0811210777580168
 40
0.0828740972201116
 40
0.0854909506855792
 40
0.0884919945980869
 40
0.0916662261884059
 40
0.0949693003506271
 40
0.0983874197158341
 40
0.101914785312361
 40
0.1055476284494234
 40
0.1092821903718322
 40
0.1131136684114179
 40
0.117035218178884
 40
0.1179666770369214
 40
0.1179666770369214
 40
0.1179666770369214
 40
0.1179666770369214
 10
10.91237506
 20
9.436471581499999
 30
0.0
 10
10.91242084137084
 20
9.436473169873664
 30
0.0
 10
10.9126121530372
 20
9.436479807385977
 30
0.0
 10
10.91295793966664
 20
9.436492088120665
 30
0.0
 10
10.91342139704328
 20
9.436509056104814
 30
0.0
 10
10.91391179963165
 20
9.43652760652179
 30
0.0
 10
10.91442925046166
 20
9.436547837245473
 30
0.0
 10
10.91497385048243
 20
9.436569860285274
 30
0.0
 10
10.91554569431455
 20
9.436593792010274
 30
0.0
 10
10.91614485494937
 20
9.436619753558534
 30
0.0
 10
10.91677141727804
 20
9.436647874204595
 30
0.0
 10
10.91742532024181
 20
9.436678280255842
 30
0.0
 10
10.91810141453732
 20
9.436710863332223
 30
0.0
 10
10.91875824296634
 20
9.43674365344435
 30
0.0
 10
10.91935389902438
 20
9.436774379321319
 30
0.0
 10
10.91983270059243
 20
9.43679970685393
 30
0.0
 10
10.92022417251014
 20
9.43682088222852
 30
0.0
 10
10.92044025592531
 20
9.43683269975574
 30
0.0
 10
10.92076864880443
 20
9.436850877330506
 30
0.0
 10
10.92028380998632
 20
9.436824081137244
 30
0.0
 10
10.92002559355694
 20
9.43681017306892
 30
0.0
 10
10.91954635482239
 20
9.436784554833948
 30
0.0
 10
10.91900478984261
 20
9.436756438077777
 30
0.0
 10
10.91833573269856
 20
9.436722667384429
 30
0.0
 10
10.91756872249246
 20
9.436685398717763
 30
0.0
 10
10.91670113222677
 20
9.436645039055894
 30
0.0
 10
10.91574317137517
 20
9.436602711525955
 30
0.0
 10
10.91470319631127
 20
9.436559401172297
 30
0.0
 10
10.91359298087907
 20
9.436516198318944
 30
0.0
 10
10.9124255706104
 20
9.436474138121118
 30
0.0
 10
10.9112148606547
 20
9.436434157019068
 30
0.0
 10
10.90997765502731
 20
9.436397119951815
 30
0.0
 10
10.90873454740078
 20
9.43636380347147
 30
0.0
 10
10.90751571189673
 20
9.436334892592739
 30
0.0
 10
10.9063429395755
 20
9.43631067425656
 30
0.0
 10
10.90527647086893
 20
9.436291479872496
 30
0.0
 10
10.90423764545132
 20
9.436275871297482
 30
0.0
 10
10.90361714935678
 20
9.436267414905046
 30
0.0
 10
10.90256085948399
 20
9.436255749022997
 30
0.0
 10
10.90423824494672
 20
9.436274319852527
 30
0.0
 10
10.90551550157022
 20
9.436294717340791
 30
0.0
 10
10.90855854799639
 20
9.436353820166118
 30
0.0
 10
10.91179211627948
 20
9.436446801871598
 30
0.0
 10
10.91535628680331
 20
9.436577727254467
 30
0.0
 10
10.91888894498223
 20
9.436739815626021
 30
0.0
 10
10.92238196370471
 20
9.436930458033041
 30
0.0
 10
10.92581164698738
 20
9.437147514341029
 30
0.0
 10
10.92918453436046
 20
9.437389803635783
 30
0.0
 10
10.93250631639915
 20
9.437656517697298
 30
0.0
 10
10.93578125580821
 20
9.437946876832816
 30
0.0
 10
10.93900174469393
 20
9.438259035206195
 30
0.0
 10
10.94215361713668
 20
9.438590387486978
 30
0.0
 10
10.94520586438093
 20
9.438935246855869
 30
0.0
 10
10.9481872826349
 20
9.439296158783815
 30
0.0
 10
10.95093157201458
 20
9.439646341216203
 30
0.0
 10
10.95386957440009
 20
9.440048423032354
 30
0.0
 10
10.9551468181297
 20
9.440223919364054
 30
0.0
 10
10.95800103647716
 20
9.440645788143486
 30
0.0
 10
10.95672427958295
 20
9.440456318054073
 30
0.0
 10
10.95533952398406
 20
9.440254697147206
 30
0.0
 10
10.95284069314782
 20
9.439903805790311
 30
0.0
 10
10.94995818822189
 20
9.439520861250445
 30
0.0
 10
10.94681637780902
 20
9.439127816122923
 30
0.0
 10
10.94354204906625
 20
9.438745549749029
 30
0.0
 10
10.94014509797
 20
9.43837799936052
 30
0.0
 10
10.93663637560619
 20
9.43802935386898
 30
0.0
 10
10.93301940772437
 20
9.437702758506338
 30
0.0
 10
10.92929859476459
 20
9.437401295474407
 30
0.0
 10
10.9254790774919
 20
9.437128420809678
 30
0.0
 10
10.92258974562291
 20
9.436949199091166
 30
0.0
 10
10.92097454711066
 20
9.43685981774662
 30
0.0
 10
10.9206645351
 20
9.4368426624
 30
0.0
 11
10.91237506
 21
9.436471581499999
 31
0.0
 11
10.9125124038
 21
9.436476355599999
 31
0.0
 11
10.9129489826
 21
9.436491847399999
 31
0.0
 11
10.9134124053
 21
9.4365088181
 31
0.0
 11
10.9139027711
 21
9.436527365999999
 31
0.0
 11
10.9144201856
 21
9.4365475956
 31
0.0
 11
10.9149647521
 21
9.436569617299999
 31
0.0
 11
10.9155365658
 21
9.436593547699999
 31
0.0
 11
10.9161357074
 21
9.436619508599999
 31
0.0
 11
10.9167622384
 21
9.436647627599999
 31
0.0
 11
10.9174161972
 21
9.4366780369
 31
0.0
 11
10.9180975959
 21
9.436710873799999
 31
0.0
 11
10.9187897708
 21
9.4367454337
 31
0.0
 11
10.9193894001
 21
9.4367763533
 31
0.0
 11
10.9198762601
 21
9.436802126399999
 31
0.0
 11
10.920249068
 21
9.4368222658
 31
0.0
 11
10.9205065785
 21
9.4368363802
 31
0.0
 11
10.9206476672
 21
9.436844183199999
 31
0.0
 11
10.9203660371
 21
9.4368286705
 31
0.0
 11
10.9200376758
 21
9.4368108443
 31
0.0
 11
10.9195940505
 21
9.436787202899999
 31
0.0
 11
10.919037621
 21
9.436758265299999
 31
0.0
 11
10.9183718403
 21
9.436724683499999
 31
0.0
 11
10.9176012739
 21
9.4366872304
 31
0.0
 11
10.916731754
 21
9.4366467849
 31
0.0
 11
10.9157705932
 21
9.4366043133
 31
0.0
 11
10.9147268907
 21
9.436560847499999
 31
0.0
 11
10.9136119596
 21
9.436517459699999
 31
0.0
 11
10.912439902
 21
9.436475231099999
 31
0.0
 11
10.9112246488
 21
9.436435098
 31
0.0
 11
10.9099799242
 21
9.436397836699999
 31
0.0
 11
10.908727946
 21
9.436364274
 31
0.0
 11
10.9074966704
 21
9.436335087899999
 31
0.0
 11
10.9063186441
 21
9.4363107038
 31
0.0
 11
10.9052263483
 21
9.436291181399999
 31
0.0
 11
10.9042417441
 21
9.436276125899999
 31
0.0
 11
10.9033794341
 21
9.436264918499999
 31
0.0
 11
10.9028693545
 21
9.4362591596
 31
0.0
 11
10.9034868067
 21
9.4362661767
 31
0.0
 11
10.9053595459
 21
9.4362931487
 31
0.0
 11
10.9083037468
 21
9.436352944199999
 31
0.0
 11
10.9117820222
 21
9.4364511087
 31
0.0
 11
10.9153568754
 21
9.436583201999999
 31
0.0
 11
10.9189097349
 21
9.436745961799999
 31
0.0
 11
10.922402695
 21
9.4369367036
 31
0.0
 11
10.9258295633
 21
9.437153566199999
 31
0.0
 11
10.9292000835
 21
9.437395702799999
 31
0.0
 11
10.9325206338
 21
9.437662326499999
 31
0.0
 11
10.9357948853
 21
9.437952622399999
 31
0.0
 11
10.9390241559
 21
9.438265666499999
 31
0.0
 11
10.9421836368
 21
9.438597730899999
 31
0.0
 11
10.9452441776
 21
9.438943792399999
 31
0.0
 11
10.9482030879
 21
9.4393012536
 31
0.0
 11
10.9510491186
 21
9.439666366599999
 31
0.0
 11
10.9537542962
 21
9.440032803599999
 31
0.0
 11
10.9560838173
 21
9.4403635257
 31
0.0
 11
10.9575077792
 21
9.440572599299999
 31
0.0
 11
10.9573107182
 21
9.440543362499999
 31
0.0
 11
10.9555760505
 21
9.440290369999999
 31
0.0
 11
10.9529845438
 21
9.439927031199999
 31
0.0
 11
10.9500096859
 21
9.4395314493
 31
0.0
 11
10.9468599864
 21
9.439137572099999
 31
0.0
 11
10.9435792024
 21
9.4387544856
 31
0.0
 11
10.940180916
 21
9.4383868043
 31
0.0
 11
10.9366708375
 21
9.438038010699999
 31
0.0
 11
10.9330527164
 21
9.4377112861
 31
0.0
 11
10.9293303486
 21
9.437409738899999
 31
0.0
 11
10.9255086286
 21
9.437136462099999
 31
0.0
 11
10.921594549
 21
9.436894525199999
 31
0.0
 11
10.9206645351
 21
9.4368426624
 31
0.0
  0
SPLINE
  5
B3
330
2
100
AcDbEntity
  8
0
100
AcDbSpline
210
0.0
220
0.0
230
1.0
 70
     8
 71
     3
 72
    13
 73
     9
 74
     7
 42
0.0000000001
 43
0.0000000001
 44
0.0000000001
 40
0.0
 40
0.0
 40
0.0
 40
0.0
 40
0.000115335224395
 40
0.0005521887976631
 40
0.0010159221300157
 40
0.0015066385882717
 40
0.0020244484003895
 40
0.0021275304764238
 40
0.0021275304764238
 40
0.0021275304764238
 40
0.0021275304764238
 10
10.9123971383
 20
9.4364723458
 30
0.0
 10
10.91243556020579
 20
9.436473680318368
 30
0.0
 10
10.91261951221244
 20
9.436480069572787
 30
0.0
 10
10.91295793967241
 20
9.436492087942824
 30
0.0
 10
10.91342139706405
 20
9.436509055551528
 30
0.0
 10
10.9139117995345
 20
9.436527609138995
 30
0.0
 10
10.91428205328016
 20
9.436542075379829
 30
0.0
 10
10.91448885246486
 20
9.43655033244131
 30
0.0
 10
10.9145231858
 20
9.436551703299999
 30
0.0
 11
10.9123971383
 21
9.4364723458
 31
0.0
 11
10.9125124038
 21
9.436476355599999
 31
0.0
 11
10.9129489826
 21
9.436491847399999
 31
0.0
 11
10.9134124053
 21
9.4365088181
 31
0.0
 11
10.9139027711
 21
9.436527365999999
 31
0.0
 11
10.9144201856
 21
9.4365475956
 31
0.0
 11
10.9145231858
 21
9.436551703299999
 31
0.0
  0
SPLINE
  5
B4
330
2
100
AcDbEntity
  8
0
100
AcDbSpline
210
0.0
220
0.0
230
1.0
 70
     8
 71
     3
 72
    46
 73
    42
 74
    40
 42
0.0000000001
 43
0.0000000001
 44
0.0000000001
 40
0.0
 40
0.0
 40
0.0
 40
0.0
 40
0.0004419295291006
 40
0.0010142437535896
 40
0.0016139475347849
 40
0.0022411092141961
 40
0.0028957746536558
 40
0.0035779641070812
 40
0.0042710012481329
 40
0.0048714271961752
 40
0.0053589688992983
 40
0.0057323203767758
 40
0.0059902173986608
 40
0.0061315217088465
 40
0.0064135787191958
 40
0.0067424235408745
 40
0.0071866783355513
 40
0.0077438597899855
 40
0.0084104868804805
 40
0.0091819629407108
 40
0.0100524229885973
 40
0.0110145216946901
 40
0.0120591288860655
 40
0.0131749038897899
 40
0.0143477219798531
 40
0.0155636376865636
 40
0.0168089198772021
 40
0.0180613478663912
 40
0.0192929693307988
 40
0.0204712479683986
 40
0.0215637182145848
 40
0.0225484375140486
 40
0.0234108203419827
 40
0.0239209324505089
 40
0.0245384245225045
 40
0.0264113579436381
 40
0.0293561659919463
 40
0.0328358263241212
 40
0.0364131191610937
 40
0.0399697047961137
 40
0.0434678689852943
 40
0.0434678689852943
 40
0.0434678689852943
 40
0.0434678689852943
 10
10.9145231858
 20
9.436551703299999
 30
0.0
 10
10.91467037590339
 20
9.436557640866343
 30
0.0
 10
10.9150081823479
 20
9.436571267789144
 30
0.0
 10
10.91554569395316
 20
9.436593801123972
 30
0.0
 10
10.91614485505299
 20
9.43661975094535
 30
0.0
 10
10.91677141724841
 20
9.436647874951837
 30
0.0
 10
10.91742532025027
 20
9.436678280042485
 30
0.0
 10
10.91810141453496
 20
9.436710863391725
 30
0.0
 10
10.91875824296689
 20
9.436743653430553
 30
0.0
 10
10.91935389902426
 20
9.436774379324095
 30
0.0
 10
10.91983270059246
 20
9.436799706853424
 30
0.0
 10
10.92022417251014
 20
9.436820882228602
 30
0.0
 10
10.92044025592531
 20
9.436832699755729
 30
0.0
 10
10.92076864880443
 20
9.43685087733051
 30
0.0
 10
10.92028380998632
 20
9.436824081137244
 30
0.0
 10
10.92002559355693
 20
9.43681017306892
 30
0.0
 10
10.91954635482239
 20
9.43678455483395
 30
0.0
 10
10.91900478984261
 20
9.436756438077775
 30
0.0
 10
10.91833573269856
 20
9.436722667384428
 30
0.0
 10
10.91756872249246
 20
9.436685398717765
 30
0.0
 10
10.91670113222677
 20
9.436645039055893
 30
0.0
 10
10.91574317137517
 20
9.436602711525955
 30
0.0
 10
10.91470319631127
 20
9.436559401172297
 30
0.0
 10
10.91359298087907
 20
9.436516198318944
 30
0.0
 10
10.9124255706104
 20
9.436474138121118
 30
0.0
 10
10.9112148606547
 20
9.436434157019064
 30
0.0
 10
10.90997765502731
 20
9.436397119951823
 30
0.0
 10
10.90873454740078
 20
9.43636380347144
 30
0.0
 10
10.90751571189671
 20
9.436334892592853
 30
0.0
 10
10.90634293957556
 20
9.436310674256171
 30
0.0
 10
10.90527647086875
 20
9.436291479873778
 30
0.0
 10
10.90423764545191
 20
9.436275871293426
 30
0.0
 10
10.90361714935522
 20
9.436267414915919
 30
0.0
 10
10.90256085948753
 20
9.436255748998348
 30
0.0
 10
10.90423824491547
 20
9.436274320069886
 30
0.0
 10
10.90551550206863
 20
9.436294713874925
 30
0.0
 10
10.90855854481396
 20
9.436353842296002
 30
0.0
 10
10.91179213048283
 20
9.436446703104671
 30
0.0
 10
10.91535623264501
 20
9.436578103859126
 30
0.0
 10
10.91888914412874
 20
9.436738430805892
 30
0.0
 10
10.92123799510582
 20
9.436870978551246
 30
0.0
 10
10.922402695
 20
9.4369367036
 30
0.0
 11
10.9145231858
 21
9.436551703299999
 31
0.0
 11
10.9149647521
 21
9.436569617299999
 31
0.0
 11
10.9155365658
 21
9.436593547699999
 31
0.0
 11
10.9161357074
 21
9.436619508599999
 31
0.0
 11
10.9167622384
 21
9.436647627599999
 31
0.0
 11
10.9174161972
 21
9.4366780369
 31
0.0
 11
10.9180975959
 21
9.436710873799999
 31
0.0
 11
10.9187897708
 21
9.4367454337
 31
0.0
 11
10.9193894001
 21
9.4367763533
 31
0.0
 11
10.9198762601
 21
9.436802126399999
 31
0.0
 11
10.920249068
 21
9.4368222658
 31
0.0
 11
10.9205065785
 21
9.4368363802
 31
0.0
 11
10.9206476672
 21
9.436844183199999
 31
0.0
 11
10.9203660371
 21
9.4368286705
 31
0.0
 11
10.9200376758
 21
9.4368108443
 31
0.0
 11
10.9195940505
 21
9.436787202899999
 31
0.0
 11
10.919037621
 21
9.436758265299999
 31
0.0
 11
10.9183718403
 21
9.436724683499999
 31
0.0
 11
10.9176012739
 21
9.4366872304
 31
0.0
 11
10.916731754
 21
9.4366467849
 31
0.0
 11
10.9157705932
 21
9.4366043133
 31
0.0
 11
10.9147268907
 21
9.436560847499999
 31
0.0
 11
10.9136119596
 21
9.436517459699999
 31
0.0
 11
10.912439902
 21
9.436475231099999
 31
0.0
 11
10.9112246488
 21
9.436435098
 31
0.0
 11
10.9099799242
 21
9.436397836699999
 31
0.0
 11
10.908727946
 21
9.436364274
 31
0.0
 11
10.9074966704
 21
9.436335087899999
 31
0.0
 11
10.9063186441
 21
9.4363107038
 31
0.0
 11
10.9052263483
 21
9.436291181399999
 31
0.0
 11
10.9042417441
 21
9.436276125899999
 31
0.0
 11
10.9033794341
 21
9.436264918499999
 31
0.0
 11
10.9028693545
 21
9.4362591596
 31
0.0
 11
10.9034868067
 21
9.4362661767
 31
0.0
 11
10.9053595459
 21
9.4362931487
 31
0.0
 11
10.9083037468
 21
9.436352944199999
 31
0.0
 11
10.9117820222
 21
9.4364511087
 31
0.0
 11
10.9153568754
 21
9.436583201999999
 31
0.0
 11
10.9189097349
 21
9.436745961799999
 31
0.0
 11
10.922402695
 21
9.4369367036
 31
0.0
  0
SPLINE
  5
B5
330
2
100
AcDbEntity
  8
0
100
AcDbSpline
210
0.0
220
0.0
230
1.0
 70
     8
 71
     3
 72
     9
 73
     5
 74
     3
 42
0.0000000001
 43
0.0000000001
 44
0.0000000001
 40
0.0
 40
0.0
 40
0.0
 40
0.0
 40
0.0034337233046394
 40
0.0068129298019788
 40
0.0068129298019788
 40
0.0068129298019788
 40
0.0068129298019788
 10
10.922402695
 20
9.4369367036
 30
0.0
 10
10.92354515003368
 20
9.437006539975408
 30
0.0
 10
10.92581192148143
 20
9.437145103942579
 30
0.0
 10
10.92807673715032
 20
9.437312616657669
 30
0.0
 10
10.9292000835
 20
9.437395702799999
 30
0.0
 11
10.922402695
 21
9.4369367036
 31
0.0
 11
10.9258295633
 21
9.437153566199999
 31
0.0
 11
10.9292000835
 21
9.437395702799999
 31
0.0
  0
SPLINE
  5
B6
330
2
100
AcDbEntity
  8
0
100
AcDbSpline
210
0.0
220
0.0
230
1.0
 70
     8
 71
     3
 72
    11
 73
     7
 74
     5
 42
0.0000000001
 43
0.0000000001
 44
0.0000000001
 40
0.0
 40
0.0
 40
0.0
 40
0.0
 40
0.0033312373815491
 40
0.006618332542145
 40
0.0098627408420622
 40
0.0130396239565639
 40
0.0130396239565639
 40
0.0130396239565639
 40
0.0130396239565639
 10
10.9292000835
 20
9.437395702799999
 30
0.0
 10
10.93030709845698
 20
9.437482593082942
 30
0.0
 10
10.93250645931761
 20
9.437655222265835
 30
0.0
 10
10.93578107153085
 20
9.437947492405292
 30
0.0
 10
10.93900232810518
 20
9.438257870777331
 30
0.0
 10
10.9411306609613
 20
9.438485241188363
 30
0.0
 10
10.9421836368
 20
9.438597730899999
 30
0.0
 11
10.9292000835
 21
9.437395702799999
 31
0.0
 11
10.9325206338
 21
9.437662326499999
 31
0.0
 11
10.9357948853
 21
9.437952622399999
 31
0.0
 11
10.9390241559
 21
9.438265666499999
 31
0.0
 11
10.9421836368
 21
9.438597730899999
 31
0.0
  0
SPLINE
  5
B7
330
2
100
AcDbEntity
  8
0
100
AcDbSpline
210
0.0
220
0.0
230
1.0
 70
     8
 71
     3
 72
    13
 73
     9
 74
     7
 42
0.0000000001
 43
0.0000000001
 44
0.0000000001
 40
0.0
 40
0.0
 40
0.0
 40
0.0
 40
0.0030800435955107
 40
0.0060604678392977
 40
0.008929822862315
 40
0.011659705995804
 40
0.0140125862865911
 40
0.0141540392402488
 40
0.0141540392402488
 40
0.0141540392402488
 40
0.0141540392402488
 10
10.9421836368
 20
9.438597730899999
 30
0.0
 10
10.94320401115957
 20
9.438711402977073
 30
0.0
 10
10.94521175741331
 20
9.438935070579809
 30
0.0
 10
10.94816675817385
 20
9.439293416495619
 30
0.0
 10
10.95100348701465
 20
9.439656807972184
 30
0.0
 10
10.95363011862652
 20
9.440013366349703
 30
0.0
 10
10.9553544656743
 20
9.440256636529625
 30
0.0
 10
10.95617712491998
 20
9.44037718398679
 30
0.0
 10
10.9562237777
 20
9.440384020199999
 30
0.0
 11
10.9421836368
 21
9.438597730899999
 31
0.0
 11
10.9452441776
 21
9.438943792399999
 31
0.0
 11
10.9482030879
 21
9.4393012536
 31
0.0
 11
10.9510491186
 21
9.439666366599999
 31
0.0
 11
10.9537542962
 21
9.440032803599999
 31
0.0
 11
10.9560838173
 21
9.4403635257
 31
0.0
 11
10.9562237777
 21
9.440384020199999
 31
0.0
  0
SPLINE
  5
B8
330
2
100
AcDbEntity
  8
0
100
AcDbSpline
210
0.0
220
0.0
230
1.0
 70
     8
 71
     3
 72
    13
 73
     9
 74
     7
 42
0.0000000001
 43
0.0000000001
 44
0.0000000001
 40
0.0
 40
0.0
 40
0.0
 40
0.0
 40
0.0341666839497682
 40
0.0699312031447687
 40
0.1083061642636694
 40
0.1494900775121374
 40
0.1929601996475158
 40
0.2376970978100213
 40
0.2376970978100213
 40
0.2376970978100213
 40
0.2376970978100213
 10
12.0514494191
 20
11.3177215815
 30
0.0
 10
12.06288871926846
 20
11.31653602787265
 30
0.0
 10
12.08630228861254
 20
11.31410947715222
 30
0.0
 10
12.11829734671587
 20
11.29540210437943
 30
0.0
 10
12.1453459708481
 20
11.26762819187278
 30
0.0
 10
12.16571981150928
 20
11.23161284900177
 30
0.0
 10
12.1789950980941
 20
11.19011523815886
 30
0.0
 10
12.18065887975511
 20
11.1606604709205
 30
0.0
 10
12.1815027177
 20
11.1457215815
 30
0.0
 11
12.0514494191
 21
11.3177215815
 31
0.0
 11
12.0851096896
 21
11.3118608237
 31
0.0
 11
12.1164760684
 21
11.294677951
 31
0.0
 11
12.1434109884
 21
11.2673439479
 31
0.0
 11
12.1640788795
 21
11.2317215815
 31
0.0
 11
12.177071259
 21
11.1902384573
 31
0.0
 11
12.1815027177
 21
11.1457215815
 31
0.0
  0
SPLINE
  5
B9
330
2
100
AcDbEntity
  8
0
100
AcDbSpline
210
0.0
220
0.0
230
1.0
 70
     8
 71
     3
 72
    10
 73
     6
 74
     4
 42
0.0000000001
 43
0.0000000001
 44
0.0000000001
 40
0.0
 40
0.0
 40
0.0
 40
0.0
 40
0.1154442418518058
 40
0.230900552399756
 40
0.3463804527236621
 40
0.3463804527236621
 40
0.3463804527236621
 40
0.3463804527236621
 10
12.1090994091
 20
10.599509673
 30
0.0
 10
12.11091440563803
 20
10.63794840327945
 30
0.0
 10
12.11454458845627
 20
10.71482988227485
 30
0.0
 10
12.11883707116953
 20
10.83021288517024
 30
0.0
 10
12.12093036671421
 20
10.90716343946347
 30
0.0
 10
12.1219771214
 20
10.9456426468
 30
0.0
 11
12.1090994091
 21
10.599509673
 31
0.0
 11
12.1143522257
 21
10.714834349
 31
0.0
 11
12.1186446789
 21
10.8302108392
 31
0.0
 11
12.1219771214
 21
10.9456426468
 31
0.0
  0
SPLINE
  5
BA
330
2
100
AcDbEntity
  8
0
100
AcDbSpline
210
0.0
220
0.0
230
1.0
 70
     8
 71
     3
 72
    10
 73
     6
 74
     4
 42
0.0000000001
 43
0.0000000001
 44
0.0000000001
 40
0.0
 40
0.0
 40
0.0
 40
0.0
 40
0.115444241856356
 40
0.2309005524005883
 40
0.3463804527244943
 40
0.3463804527244943
 40
0.3463804527244943
 40
0.3463804527244943
 10
7.5281320945
 20
10.599509673
 30
0.0
 10
7.526317097908664
 20
10.63794840327863
 30
0.0
 10
7.522686914983941
 20
10.71482988226965
 30
0.0
 10
7.51839443247038
 20
10.83021288517302
 30
0.0
 10
7.516301136899103
 20
10.90716343946398
 30
0.0
 10
7.5152543822
 20
10.9456426468
 30
0.0
 11
7.5281320945
 21
10.599509673
 31
0.0
 11
7.5228792778
 21
10.714834349
 31
0.0
 11
7.518586824699999
 21
10.8302108392
 31
0.0
 11
7.5152543822
 21
10.9456426468
 31
0.0
  0
SPLINE
  5
BB
330
2
100
AcDbEntity
  8
0
100
AcDbSpline
210
0.0
220
0.0
230
1.0
 70
    24
 71
     3
 72
     8
 73
     4
 74
     2
 42
0.0000000001
 43
0.0000000001
 44
0.0000000001
 40
0.0
 40
0.0
 40
0.0
 40
0.0
 40
0.0061851506443386
 40
0.0061851506443386
 40
0.0061851506443386
 40
0.0061851506443386
 10
10.184014842
 20
9.436471581499999
 30
0.0
 10
10.1819558739
 20
9.436365153766665
 30
0.0
 10
10.1798969058
 20
9.436258726033333
 30
0.0
 10
10.1778379377
 20
9.436152298299999
 30
0.0
 11
10.184014842
 21
9.436471581499999
 31
0.0
 11
10.1778379377
 21
9.436152298299999
 31
0.0
  0
SPLINE
  5
BC
330
2
100
AcDbEntity
  8
0
100
AcDbSpline
210
0.0
220
0.0
230
1.0
 70
     8
 71
     3
 72
     9
 73
     5
 74
     3
 42
0.0000000001
 43
0.0000000001
 44
0.0000000001
 40
0.0
 40
0.0
 40
0.0
 40
0.0
 40
0.2266015212148609
 40
0.4542923715167819
 40
0.4542923715167819
 40
0.4542923715167819
 40
0.4542923715167819
 10
12.0695793006
 20
10.5724834757
 30
0.0
 10
12.05818466026856
 20
10.49781399963805
 30
0.0
 10
12.03534060277506
 20
10.34811609302985
 30
0.0
 10
12.01295592848983
 20
10.19834880442747
 30
0.0
 10
12.0017367537
 20
10.1232855997
 30
0.0
 11
12.0695793006
 21
10.5724834757
 31
0.0
 11
12.0355096753
 21
10.3484577851
 31
0.0
 11
12.0017367537
 21
10.1232855997
 31
0.0
  0
SPLINE
  5
BD
330
2
100
AcDbEntity
  8
0
100
AcDbSpline
210
0.0
220
0.0
230
1.0
 70
     8
 71
     3
 72
    11
 73
     7
 74
     5
 42
0.0000000001
 43
0.0000000001
 44
0.0000000001
 40
0.0
 40
0.0
 40
0.0
 40
0.0
 40
0.0168118237946115
 40
0.0352415175321297
 40
0.0558483805975124
 40
0.0780815968793761
 40
0.0780815968793761
 40
0.0780815968793761
 40
0.0780815968793761
 10
11.9563395855
 20
10.0677215815
 30
0.0
 10
11.96198604082916
 20
10.06860075634434
 30
0.0
 10
11.97382233276916
 20
10.07044371259164
 30
0.0
 10
11.98813075605777
 20
10.0836515452039
 30
0.0
 10
11.99834594296664
 20
10.10168064534137
 30
0.0
 10
12.0005782348248
 20
10.11590395999094
 30
0.0
 10
12.0017367534
 20
10.1232855997
 30
0.0
 11
11.9563395855
 21
10.0677215815
 31
0.0
 11
11.9726400698
 21
10.0718363878
 31
0.0
 11
11.9867944357
 21
10.0836392492
 31
0.0
 11
11.9969386722
 21
10.1015762855
 31
0.0
 11
12.0017367534
 21
10.1232855997
 31
0.0
  0
SPLINE
  5
BE
330
2
100
AcDbEntity
  8
0
100
AcDbSpline
210
0.0
220
0.0
230
1.0
 70
     8
 71
     3
 72
    11
 73
     7
 74
     5
 42
0.0000000001
 43
0.0000000001
 44
0.0000000001
 40
0.0
 40
0.0
 40
0.0
 40
0.0
 40
0.01681182389157
 40
0.0352415175522862
 40
0.0558483806176689
 40
0.0780815968995328
 40
0.0780815968995328
 40
0.0780815968995328
 40
0.0780815968995328
 10
7.6808919181
 20
10.0677215815
 30
0.0
 10
7.675245462730622
 20
10.06860075633222
 30
0.0
 10
7.663409170767802
 20
10.07044371254455
 30
0.0
 10
7.649100747543673
 20
10.08365154524483
 30
0.0
 10
7.638885560629285
 20
10.10168064533613
 30
0.0
 10
7.636653268773805
 20
10.11590395998915
 30
0.0
 10
7.6354947502
 20
10.1232855997
 30
0.0
 11
7.6808919181
 21
10.0677215815
 31
0.0
 11
7.6645914337
 21
10.0718363878
 31
0.0
 11
7.6504370679
 21
10.0836392492
 31
0.0
 11
7.6402928314
 21
10.1015762855
 31
0.0
 11
7.6354947502
 21
10.1232855997
 31
0.0
  0
SPLINE
  5
BF
330
2
100
AcDbEntity
  8
0
100
AcDbSpline
210
0.0
220
0.0
230
1.0
 70
     8
 71
     3
 72
    11
 73
     7
 74
     5
 42
0.0000000001
 43
0.0000000001
 44
0.0000000001
 40
0.0
 40
0.0
 40
0.0
 40
0.0
 40
0.008657769080036
 40
0.0345612927698358
 40
0.0768583543533901
 40
0.1337026698811649
 40
0.1337026698811649
 40
0.1337026698811649
 40
0.1337026698811649
 10
12.1354261648
 20
10.121523392
 30
0.0
 10
12.13254022500417
 20
10.1215270979881
 30
0.0
 10
12.12101972713945
 20
10.12154189206942
 30
0.0
 10
12.09540290471703
 20
10.12196221508612
 30
0.0
 10
12.05372515075464
 20
10.12250229209564
 30
0.0
 10
12.02068169128256
 20
10.12300023237171
 30
0.0
 10
12.0017356882
 20
10.1232857345
 30
0.0
 11
12.1354261648
 21
10.121523392
 31
0.0
 11
12.1267684238
 21
10.1215454424
 31
0.0
 11
12.1008668253
 21
10.1218612504
 31
0.0
 11
12.0585738915
 21
10.1224521558
 31
0.0
 11
12.0017356882
 21
10.1232857345
 31
0.0
  0
SPLINE
  5
C0
330
2
100
AcDbEntity
  8
0
100
AcDbSpline
210
0.0
220
0.0
230
1.0
 70
    24
 71
     3
 72
     8
 73
     4
 74
     2
 42
0.0000000001
 43
0.0000000001
 44
0.0000000001
 40
0.0
 40
0.0
 40
0.0
 40
0.0
 40
0.0156965412242557
 40
0.0156965412242557
 40
0.0156965412242557
 40
0.0156965412242557
 10
9.417495586699999
 20
9.436471581499999
 30
0.0
 10
9.422693403966665
 20
9.435872910066665
 30
0.0
 10
9.427891221233332
 20
9.435274238633331
 30
0.0
 10
9.4330890385
 20
9.434675567199999
 30
0.0
 11
9.417495586699999
 21
9.436471581499999
 31
0.0
 11
9.4330890385
 21
9.434675567199999
 31
0.0
  0
SPLINE
  5
C1
330
2
100
AcDbEntity
  8
0
100
AcDbSpline
210
0.0
220
0.0
230
1.0
 70
     8
 71
     3
 72
    10
 73
     6
 74
     4
 42
0.0000000001
 43
0.0000000001
 44
0.0000000001
 40
0.0
 40
0.0
 40
0.0
 40
0.0
 40
0.0154764705495803
 40
0.0307522967890513
 40
0.0320172791347027
 40
0.0320172791347027
 40
0.0320172791347027
 40
0.0320172791347027
 10
9.4330890385
 20
9.434675567199999
 30
0.0
 10
9.438045286620086
 20
9.433174622183381
 30
0.0
 10
9.447893527707147
 20
9.430192191113764
 30
0.0
 10
9.4569554084254
 20
9.424246233947656
 30
0.0
 10
9.461186153620262
 20
9.420712638909575
 30
0.0
 10
9.461509705999999
 20
9.4204424021
 30
0.0
 11
9.4330890385
 21
9.434675567199999
 31
0.0
 11
9.44766794
 21
9.429481650399999
 31
0.0
 11
9.460536412199999
 21
9.4212504117
 31
0.0
 11
9.461509705999999
 21
9.4204424021
 31
0.0
  0
SPLINE
  5
C2
330
2
100
AcDbEntity
  8
0
100
AcDbSpline
210
0.0
220
0.0
230
1.0
 70
     8
 71
     3
 72
    28
 73
    24
 74
    22
 42
0.0000000001
 43
0.0000000001
 44
0.0000000001
 40
0.0
 40
0.0
 40
0.0
 40
0.0
 40
0.1818065268100626
 40
0.3962794718598512
 40
0.621635513525685
 40
0.8371531379929583
 40
1.027673392764844
 40
1.186705837511671
 40
1.315159325419177
 40
1.419053742538079
 40
1.503396350711091
 40
1.571239860980877
 40
1.625238444630519
 40
1.667728384452412
 40
1.700383359720959
 40
1.724890175006629
 40
1.742885166951074
 40
1.75572985478235
 40
1.76426852010048
 40
1.76933065013418
 40
1.77186988587649
 40
1.772863203623923
 40
1.773075925661236
 40
1.773075925661236
 40
1.773075925661236
 40
1.773075925661236
 10
9.818808325899999
 20
10.0369840956
 30
0.0
 10
9.879410502141871
 20
10.03699369711588
 30
0.0
 10
10.01150366082025
 20
10.03701462531745
 30
0.0
 10
10.21871543805108
 20
10.0371953833959
 30
0.0
 10
10.43716409829115
 20
10.0375057143152
 30
0.0
 10
10.64762832763799
 20
10.03792678636373
 30
0.0
 10
10.83598456145897
 20
10.03837876729948
 30
0.0
 10
10.9953194229004
 20
10.03879240114423
 30
0.0
 10
11.12577908937813
 20
10.03913262897187
 30
0.0
 10
11.23134231579489
 20
10.03938340072308
 30
0.0
 10
11.31670230177086
 20
10.03954321382497
 30
0.0
 10
11.38543063896515
 20
10.0396166542107
 30
0.0
 10
11.44020765366916
 20
10.03960566201159
 30
0.0
 10
11.48325634838282
 20
10.03952509293743
 30
0.0
 10
11.51647101192549
 20
10.03937859565438
 30
0.0
 10
11.54152826215846
 20
10.03918842908924
 30
0.0
 10
11.55996210395885
 20
10.03893205833009
 30
0.0
 10
11.57311652792361
 20
10.03871089385788
 30
0.0
 10
11.58186377638097
 20
10.03834204330071
 30
0.0
 10
11.58735086098954
 20
10.0382060501443
 30
0.0
 10
11.59003551527121
 20
10.03768984967396
 30
0.0
 10
11.59144681687902
 20
10.03768295964082
 30
0.0
 10
11.59169252317308
 20
10.03735551889898
 30
0.0
 10
11.591735861
 20
10.0372977647
 30
0.0
 11
9.818808325899999
 21
10.0369840956
 31
0.0
 11
10.0006148462
 21
10.0370327489
 31
0.0
 11
10.2150877169
 21
10.0372113323
 31
0.0
 11
10.4404435295
 21
10.0375326463
 31
0.0
 11
10.6559607329
 21
10.0379586682
 31
0.0
 11
10.8464804513
 21
10.0384107513
 31
0.0
 11
11.0055123715
 21
10.0388192114
 31
0.0
 11
11.1339654374
 21
10.039148478
 31
0.0
 11
11.2378595755
 21
10.039389262
 31
0.0
 11
11.3222020472
 21
10.0395409886
 31
0.0
 11
11.3900455267
 21
10.0396056033
 31
0.0
 11
11.4440441075
 21
10.0395880604
 31
0.0
 11
11.4865339532
 21
10.0394986263
 31
0.0
 11
11.5191885757
 21
10.0393468397
 31
0.0
 11
11.543694537
 21
10.0391422518
 31
0.0
 11
11.5616878694
 21
10.0388978664
 31
0.0
 11
11.5745296037
 21
10.0386224292
 31
0.0
 11
11.5830630227
 21
10.0383231541
 31
0.0
 11
11.5881155022
 21
10.0380107259
 31
0.0
 11
11.5906360552
 21
10.0377032674
 31
0.0
 11
11.5915993531
 21
10.0374609096
 31
0.0
 11
11.591735861
 21
10.0372977647
 31
0.0
  0
SPLINE
  5
C3
330
2
100
AcDbEntity
  8
0
100
AcDbSpline
210
0.0
220
0.0
230
1.0
 70
     8
 71
     3
 72
    12
 73
     8
 74
     6
 42
0.0000000001
 43
0.0000000001
 44
0.0000000001
 40
0.0
 40
0.0
 40
0.0
 40
0.0
 40
0.0449589828508487
 40
0.081798538375816
 40
0.1086889737151959
 40
0.1247102962155424
 40
0.129947214434125
 40
0.129947214434125
 40
0.129947214434125
 40
0.129947214434125
 10
12.0695790168
 20
10.5724835982
 30
0.0
 10
12.08456033951604
 20
10.57284689327063
 30
0.0
 10
12.11181741303957
 20
10.57350787365525
 30
0.0
 10
12.14804218562597
 20
10.57441548254298
 30
0.0
 10
12.17459089518746
 20
10.57550899489726
 30
0.0
 10
12.1906624939884
 20
10.57582145681738
 30
0.0
 10
12.1976957971134
 20
10.57670284016078
 30
0.0
 10
12.199428435
 20
10.5769199669
 30
0.0
 11
12.0695790168
 21
10.5724835982
 31
0.0
 11
12.1145246251
 21
10.5735801535
 31
0.0
 11
12.1513497068
 21
10.5746127275
 31
0.0
 11
12.178224276
 21
10.5755363308
 31
0.0
 11
12.1942267279
 21
10.5763137032
 31
0.0
 11
12.199428435
 21
10.5769199669
 31
0.0
  0
SPLINE
  5
C4
330
2
100
AcDbEntity
  8
0
100
AcDbSpline
210
0.0
220
0.0
230
1.0
 70
     8
 71
     3
 72
    11
 73
     7
 74
     5
 42
0.0000000001
 43
0.0000000001
 44
0.0000000001
 40
0.0
 40
0.0
 40
0.0
 40
0.0
 40
0.0106152753019651
 40
0.0214286875429682
 40
0.0324589445157341
 40
0.0437283895833265
 40
0.0437283895833265
 40
0.0437283895833265
 40
0.0437283895833265
 10
12.1111928947
 20
10.585916286
 30
0.0
 10
12.10783426065302
 20
10.58480269990312
 30
0.0
 10
12.1010543027606
 20
10.58255474232845
 30
0.0
 10
12.09076452616637
 20
10.57921011040194
 30
0.0
 10
12.08025223204712
 20
10.57584507421249
 30
0.0
 10
12.07316233930355
 20
10.57361202428509
 30
0.0
 10
12.0695793696
 20
10.5724835234
 30
0.0
 11
12.1111928947
 21
10.585916286
 31
0.0
 11
12.1011137709
 21
10.5825853202
 31
0.0
 11
12.0908308204
 21
10.5792400529
 31
0.0
 11
12.0803255993
 21
10.5758774797
 31
0.0
 11
12.0695793696
 21
10.5724835234
 31
0.0
  0
SPLINE
  5
C5
330
2
100
AcDbEntity
  8
0
100
AcDbSpline
210
0.0
220
0.0
230
1.0
 70
     8
 71
     3
 72
    10
 73
     6
 74
     4
 42
0.0000000001
 43
0.0000000001
 44
0.0000000001
 40
0.0
 40
0.0
 40
0.0
 40
0.0
 40
0.0159244640612454
 40
0.0318516512202383
 40
0.047877672599157
 40
0.047877672599157
 40
0.047877672599157
 40
0.047877672599157
 10
12.1090994091
 20
10.599509673
 30
0.0
 10
12.10470547821399
 20
10.5965314313217
 30
0.0
 10
12.09591686507583
 20
10.59057443868308
 30
0.0
 10
12.08274520683077
 20
10.5815629921104
 30
0.0
 10
12.07397697632537
 20
10.57551621558256
 30
0.0
 10
12.0695793006
 20
10.5724834757
 30
0.0
 11
12.1090994091
 21
10.599509673
 31
0.0
 11
12.0959240864
 21
10.5905654331
 31
0.0
 11
12.082777972
 21
10.5815734941
 31
0.0
 11
12.0695793006
 21
10.5724834757
 31
0.0
  0
SPLINE
  5
C6
330
2
100
AcDbEntity
  8
0
100
AcDbSpline
210
0.0
220
0.0
230
1.0
 70
     8
 71
     3
 72
    10
 73
     6
 74
     4
 42
0.0000000001
 43
0.0000000001
 44
0.0000000001
 40
0.0
 40
0.0
 40
0.0
 40
0.0
 40
0.0044686031487363
 40
0.0090633591171204
 40
0.0137744272559932
 40
0.0137744272559932
 40
0.0137744272559932
 40
0.0137744272559932
 10
12.1111928947
 20
10.585916286
 30
0.0
 10
12.11108900430342
 20
10.58740262881079
 30
0.0
 10
12.1108782905878
 20
10.5904172752712
 30
0.0
 10
12.11017082218018
 20
10.59496095817114
 30
0.0
 10
12.10945951251281
 20
10.59798085277948
 30
0.0
 10
12.1090994124
 20
10.5995096727
 30
0.0
 11
12.1111928947
 21
10.585916286
 31
0.0
 11
12.110819287
 21
10.5903692436
 31
0.0
 11
12.110119907
 21
10.5949104604
 31
0.0
 11
12.1090994124
 21
10.5995096727
 31
0.0
  0
SPLINE
  5
C7
330
2
100
AcDbEntity
  8
0
100
AcDbSpline
210
0.0
220
0.0
230
1.0
 70
     8
 71
     3
 72
    10
 73
     6
 74
     4
 42
0.0000000001
 43
0.0000000001
 44
0.0000000001
 40
0.0
 40
0.0
 40
0.0
 40
0.0
 40
0.0103877114552377
 40
0.0212837586577496
 40
0.0324763194602237
 40
0.0324763194602237
 40
0.0324763194602237
 40
0.0324763194602237
 10
7.505766392299999
 20
10.976284543
 30
0.0
 10
7.507552946044135
 20
10.97330807009663
 30
0.0
 10
7.511213480790704
 20
10.96720946683839
 30
0.0
 10
7.514386087306107
 20
10.95671807620999
 30
0.0
 10
7.514962371920836
 20
10.94936734823106
 30
0.0
 10
7.5152543822
 20
10.9456426468
 30
0.0
 11
7.505766392299999
 21
10.976284543
 31
0.0
 11
7.5107493801
 21
10.9671700281
 31
0.0
 11
7.513972277899999
 21
10.9567615328
 31
0.0
 11
7.5152543822
 21
10.9456426468
 31
0.0
  0
SPLINE
  5
C8
330
2
100
AcDbEntity
  8
0
100
AcDbSpline
210
0.0
220
0.0
230
1.0
 70
     8
 71
     3
 72
    10
 73
     6
 74
     4
 42
0.0000000001
 43
0.0000000001
 44
0.0000000001
 40
0.0
 40
0.0
 40
0.0
 40
0.0
 40
0.0616952963740738
 40
0.1218141531832028
 40
0.1790555625638335
 40
0.1790555625638335
 40
0.1790555625638335
 40
0.1790555625638335
 10
7.455728785899999
 20
11.1457215815
 30
0.0
 10
7.45688147893551
 20
11.12515725875903
 30
0.0
 10
7.459157411368827
 20
11.08455407330243
 30
0.0
 10
7.47588912679007
 20
11.02642034803131
 30
0.0
 10
7.495971430249144
 20
10.99272106419058
 30
0.0
 10
7.505766392299999
 20
10.976284543
 30
0.0
 11
7.455728785899999
 21
11.1457215815
 31
0.0
 11
7.4615228995
 21
11.0842989648
 31
0.0
 11
7.4785500418
 21
11.0266417591
 31
0.0
 11
7.505766392299999
 21
10.976284543
 31
0.0
  0
SPLINE
  5
C9
330
2
100
AcDbEntity
  8
0
100
AcDbSpline
210
0.0
220
0.0
230
1.0
 70
     8
 71
     3
 72
    15
 73
    11
 74
     9
 42
0.0000000001
 43
0.0000000001
 44
0.0000000001
 40
0.0
 40
0.0
 40
0.0
 40
0.0
 40
0.0187503661797266
 40
0.0388853524830653
 40
0.060646868948913
 40
0.0837836299819732
 40
0.1083104297011878
 40
0.134577817891711
 40
0.162720976588025
 40
0.1922305620897033
 40
0.1922305620897033
 40
0.1922305620897033
 40
0.1922305620897033
 10
12.2737645448
 20
10.6896568501
 30
0.0
 10
12.26750998287824
 20
10.68938330762305
 30
0.0
 10
12.25453899113208
 20
10.68881602293469
 30
0.0
 10
12.23473047161512
 20
10.68430166178865
 30
0.0
 10
12.21429097386008
 20
10.67696437150031
 30
0.0
 10
12.19356109115004
 20
10.66655366935504
 30
0.0
 10
12.17276796117057
 20
10.65327038885867
 30
0.0
 10
12.15179137230947
 20
10.63733024788166
 30
0.0
 10
12.13098672063083
 20
10.61861420097408
 30
0.0
 10
12.11650955397849
 20
10.60597768164161
 30
0.0
 10
12.1090994091
 20
10.599509673
 30
0.0
 11
12.2737645448
 21
10.6896568501
 31
0.0
 11
12.2550636917
 21
10.688295114
 31
0.0
 11
12.2353810205
 21
10.6840512799
 31
0.0
 11
12.2148887925
 21
10.6767278797
 31
0.0
 11
12.194170926
 21
10.6664283788
 31
0.0
 11
12.1734412317
 21
10.6533194628
 31
0.0
 11
12.1525158977
 21
10.6374416141
 31
0.0
 11
12.1312815151
 21
10.6189716824
 31
0.0
 11
12.1090994091
 21
10.599509673
 31
0.0
  0
SPLINE
  5
CA
330
2
100
AcDbEntity
  8
0
100
AcDbSpline
210
0.0
220
0.0
230
1.0
 70
     8
 71
     3
 72
    13
 73
     9
 74
     7
 42
0.0000000001
 43
0.0000000001
 44
0.0000000001
 40
0.0
 40
0.0
 40
0.0
 40
0.0
 40
0.0341666839497691
 40
0.0699312031447689
 40
0.1083061642636701
 40
0.1494900775121381
 40
0.1929601996475165
 40
0.2376970978100219
 40
0.2376970978100219
 40
0.2376970978100219
 40
0.2376970978100219
 10
7.585782084499999
 20
11.3177215815
 30
0.0
 10
7.574342784331533
 20
11.31653602787265
 30
0.0
 10
7.550929214987458
 20
11.31410947715222
 30
0.0
 10
7.518934156884125
 20
11.29540210437943
 30
0.0
 10
7.491885532751894
 20
11.26762819187278
 30
0.0
 10
7.471511692090718
 20
11.23161284900177
 30
0.0
 10
7.458236405505896
 20
11.19011523815886
 30
0.0
 10
7.456572623844889
 20
11.16066047092051
 30
0.0
 10
7.455728785899999
 20
11.1457215815
 30
0.0
 11
7.585782084499999
 21
11.3177215815
 31
0.0
 11
7.552121814
 21
11.3118608237
 31
0.0
 11
7.520755435199999
 21
11.294677951
 31
0.0
 11
7.4938205152
 21
11.2673439479
 31
0.0
 11
7.473152624099999
 21
11.2317215815
 31
0.0
 11
7.460160244599999
 21
11.1902384573
 31
0.0
 11
7.455728785899999
 21
11.1457215815
 31
0.0
  0
SPLINE
  5
CB
330
2
100
AcDbEntity
  8
0
100
AcDbSpline
210
0.0
220
0.0
230
1.0
 70
    24
 71
     3
 72
     8
 73
     4
 74
     2
 42
0.0000000001
 43
0.0000000001
 44
0.0000000001
 40
0.0
 40
0.0
 40
0.0
 40
0.0
 40
0.0104739374848694
 40
0.0104739374848694
 40
0.0104739374848694
 40
0.0104739374848694
 10
12.2481080652
 20
10.6307215815
 30
0.0
 10
12.25127293333333
 20
10.6321956482
 30
0.0
 10
12.25443780146667
 20
10.6336697149
 30
0.0
 10
12.2576026696
 20
10.6351437816
 30
0.0
 11
12.2481080652
 21
10.6307215815
 31
0.0
 11
12.2576026696
 21
10.6351437816
 31
0.0
  0
SPLINE
  5
CC
330
2
100
AcDbEntity
  8
0
100
AcDbSpline
210
0.0
220
0.0
230
1.0
 70
     8
 71
     3
 72
    10
 73
     6
 74
     4
 42
0.0000000001
 43
0.0000000001
 44
0.0000000001
 40
0.0
 40
0.0
 40
0.0
 40
0.0
 40
0.0150409122031879
 40
0.0349319871057349
 40
0.0578551501568185
 40
0.0578551501568185
 40
0.0578551501568185
 40
0.0578551501568185
 10
12.2576026696
 20
10.6351437816
 30
0.0
 10
12.26056879132404
 20
10.63923027417819
 30
0.0
 10
12.26745750421716
 20
10.64872100879059
 30
0.0
 10
12.27219042859953
 20
10.66784630435708
 30
0.0
 10
12.27321563769301
 20
10.6820513365163
 30
0.0
 10
12.2737645447
 20
10.6896568501
 30
0.0
 11
12.2576026696
 21
10.6351437816
 31
0.0
 11
12.2657536916
 21
10.6477845838
 31
0.0
 11
12.2714076799
 21
10.6668551705
 31
0.0
 11
12.2737645447
 21
10.6896568501
 31
0.0
  0
SPLINE
  5
CD
330
2
100
AcDbEntity
  8
0
100
AcDbSpline
210
0.0
220
0.0
230
1.0
 70
     8
 71
     3
 72
     9
 73
     5
 74
     3
 42
0.0000000001
 43
0.0000000001
 44
0.0000000001
 40
0.0
 40
0.0
 40
0.0
 40
0.0
 40
0.2266015212148611
 40
0.454292371516782
 40
0.454292371516782
 40
0.454292371516782
 40
0.454292371516782
 10
7.567652202999999
 20
10.5724834757
 30
0.0
 10
7.579046843331433
 20
10.49781399963805
 30
0.0
 10
7.601890900824939
 20
10.34811609302985
 30
0.0
 10
7.624275575110167
 20
10.19834880442747
 30
0.0
 10
7.6354947499
 20
10.1232855997
 30
0.0
 11
7.567652202999999
 21
10.5724834757
 31
0.0
 11
7.601721828299999
 21
10.3484577851
 31
0.0
 11
7.6354947499
 21
10.1232855997
 31
0.0
  0
SPLINE
  5
CE
330
2
100
AcDbEntity
  8
0
100
AcDbSpline
210
0.0
220
0.0
230
1.0
 70
     8
 71
     3
 72
    11
 73
     7
 74
     5
 42
0.0000000001
 43
0.0000000001
 44
0.0000000001
 40
0.0
 40
0.0
 40
0.0
 40
0.0
 40
0.008657769080036
 40
0.0345612927698367
 40
0.0768583543533901
 40
0.1337026697811756
 40
0.1337026697811756
 40
0.1337026697811756
 40
0.1337026697811756
 10
7.501805338799999
 20
10.121523392
 30
0.0
 10
7.50469127859583
 20
10.1215270979881
 30
0.0
 10
7.516211776460547
 20
10.12154189206942
 30
0.0
 10
7.54182859888297
 20
10.12196221508616
 30
0.0
 10
7.583506352812038
 20
10.12250229209491
 30
0.0
 10
7.616549812250777
 20
10.12300023237158
 30
0.0
 10
7.635495815299999
 20
10.1232857345
 30
0.0
 11
7.501805338799999
 21
10.121523392
 31
0.0
 11
7.5104630798
 21
10.1215454424
 31
0.0
 11
7.5363646783
 21
10.1218612504
 31
0.0
 11
7.578657612099999
 21
10.1224521558
 31
0.0
 11
7.635495815299999
 21
10.1232857345
 31
0.0
  0
SPLINE
  5
CF
330
2
100
AcDbEntity
  8
0
100
AcDbSpline
210
0.0
220
0.0
230
1.0
 70
     8
 71
     3
 72
    28
 73
    24
 74
    22
 42
0.0000000001
 43
0.0000000001
 44
0.0000000001
 40
0.0
 40
0.0
 40
0.0
 40
0.0
 40
0.1823036034759726
 40
0.3967843472859351
 40
0.6221361480467708
 40
0.8376403791939857
 40
1.028142735881381
 40
1.187157232688009
 40
1.315595671528323
 40
1.419478481676657
 40
1.503811967593197
 40
1.571648167433064
 40
1.625640954492248
 40
1.668126286570454
 40
1.700777626253595
 40
1.725281670622674
 40
1.743274610327054
 40
1.756117757149265
 40
1.764655273435328
 40
1.769716606381474
 40
1.772255361779243
 40
1.77324844127342
 40
1.773461072792285
 40
1.773461072792285
 40
1.773461072792285
 40
1.773461072792285
 10
9.818808326699999
 20
10.0369881253
 30
0.0
 10
9.758040457789848
 20
10.03699603328541
 30
0.0
 10
9.625779006333408
 20
10.03701324503972
 30
0.0
 10
9.418400351462155
 20
10.03719590860666
 30
0.0
 10
9.199954969680362
 20
10.03750580673735
 30
0.0
 10
8.98950258455696
 20
10.03792703579045
 30
0.0
 10
8.801162763864097
 20
10.03837897571344
 30
0.0
 10
8.641844867417571
 20
10.03879257940869
 30
0.0
 10
8.511400068868372
 20
10.03913276112481
 30
0.0
 10
8.405848768465112
 20
10.03938348764616
 30
0.0
 10
8.320498129006882
 20
10.03954326064201
 30
0.0
 10
8.251777201465767
 20
10.03961666526363
 30
0.0
 10
8.197006091872978
 20
10.03960564392543
 30
0.0
 10
8.153962076694661
 20
10.03952505307716
 30
0.0
 10
8.120751085894362
 20
10.03937853847039
 30
0.0
 10
8.095696652416268
 20
10.03918836185119
 30
0.0
 10
8.077264939336835
 20
10.0389319833032
 30
0.0
 10
8.064112080596371
 20
10.03871082410157
 30
0.0
 10
8.055366026667932
 20
10.03834196414699
 30
0.0
 10
8.049879698184435
 20
10.03820599035619
 30
0.0
 10
8.047195623137039
 20
10.0376897807201
 30
0.0
 10
8.045784522248247
 20
10.03768292037934
 30
0.0
 10
8.045538963991049
 20
10.03735550371809
 30
0.0
 10
8.0454956589
 20
10.0372977626
 30
0.0
 11
9.818808326699999
 21
10.0369881253
 31
0.0
 11
9.6365047287
 21
10.0370328084
 31
0.0
 11
9.422024059299999
 21
10.0372114673
 31
0.0
 11
9.1966724877
 21
10.0375328449
 31
0.0
 11
8.981168677699999
 21
10.037958894
 31
0.0
 11
8.790666857399999
 21
10.0384109624
 31
0.0
 11
8.631652885099999
 21
10.0388193838
 31
0.0
 11
8.5032148682
 21
10.0391486049
 31
0.0
 11
8.399332337
 21
10.039389345
 31
0.0
 11
8.314998987499999
 21
10.039541032
 31
0.0
 11
8.247162818399999
 21
10.0396056118
 31
0.0
 11
8.193170034199999
 21
10.0395880405
 31
0.0
 11
8.1506847963
 21
10.0394985845
 31
0.0
 11
8.118033809499999
 21
10.0393467817
 31
0.0
 11
8.093530619299999
 21
10.0391421834
 31
0.0
 11
8.0755393394
 21
10.0388977928
 31
0.0
 11
8.062699146499999
 21
10.0386223539
 31
0.0
 11
8.0541668772
 21
10.0383230799
 31
0.0
 11
8.0491151961
 21
10.0380106551
 31
0.0
 11
8.046595125199999
 21
10.0377032114
 31
0.0
 11
8.045632068399999
 21
10.0374608718
 31
0.0
 11
8.0454956589
 21
10.0372977626
 31
0.0
  0
SPLINE
  5
D0
330
2
100
AcDbEntity
  8
0
100
AcDbSpline
210
0.0
220
0.0
230
1.0
 70
     8
 71
     3
 72
    12
 73
     8
 74
     6
 42
0.0000000001
 43
0.0000000001
 44
0.0000000001
 40
0.0
 40
0.0
 40
0.0
 40
0.0
 40
0.0449589828508495
 40
0.0817985383758169
 40
0.1086889737151968
 40
0.1247102962155424
 40
0.1299472145334535
 40
0.1299472145334535
 40
0.1299472145334535
 40
0.1299472145334535
 10
7.5676524868
 20
10.5724835982
 30
0.0
 10
7.552671164083907
 20
10.57284689327019
 30
0.0
 10
7.525414090560285
 20
10.57350787365401
 30
0.0
 10
7.489189317974421
 20
10.5744154825465
 30
0.0
 10
7.462640608411668
 20
10.57550899488948
 30
0.0
 10
7.446569009579794
 20
10.57582145683006
 30
0.0
 10
7.439535706419951
 20
10.5767028401608
 30
0.0
 10
7.4378030685
 20
10.5769199669
 30
0.0
 11
7.5676524868
 21
10.5724835982
 31
0.0
 11
7.5227068785
 21
10.5735801535
 31
0.0
 11
7.4858817968
 21
10.5746127275
 31
0.0
 11
7.459007227599999
 21
10.5755363308
 31
0.0
 11
7.4430047757
 21
10.5763137032
 31
0.0
 11
7.4378030685
 21
10.5769199669
 31
0.0
  0
SPLINE
  5
D1
330
2
100
AcDbEntity
  8
0
100
AcDbSpline
210
0.0
220
0.0
230
1.0
 70
     8
 71
     3
 72
    11
 73
     7
 74
     5
 42
0.0000000001
 43
0.0000000001
 44
0.0000000001
 40
0.0
 40
0.0
 40
0.0
 40
0.0
 40
0.0106152753019642
 40
0.0214286875429683
 40
0.0324589444204932
 40
0.0437283895834429
 40
0.0437283895834429
 40
0.0437283895834429
 40
0.0437283895834429
 10
7.5260386089
 20
10.585916286
 30
0.0
 10
7.529397242946665
 20
10.58480269990215
 30
0.0
 10
7.536177200838468
 20
10.58255474232554
 30
0.0
 10
7.546466977407273
 20
10.57921011042378
 30
0.0
 10
7.556979271507822
 20
10.57584507417562
 30
0.0
 10
7.564069164261199
 20
10.57361202427906
 30
0.0
 10
7.567652134
 20
10.5724835234
 30
0.0
 11
7.5260386089
 21
10.585916286
 31
0.0
 11
7.5361177327
 21
10.5825853202
 31
0.0
 11
7.546400683199999
 21
10.5792400529
 31
0.0
 11
7.556905904199999
 21
10.5758774797
 31
0.0
 11
7.567652134
 21
10.5724835234
 31
0.0
  0
SPLINE
  5
D2
330
2
100
AcDbEntity
  8
0
100
AcDbSpline
210
0.0
220
0.0
230
1.0
 70
     8
 71
     3
 72
    10
 73
     6
 74
     4
 42
0.0000000001
 43
0.0000000001
 44
0.0000000001
 40
0.0
 40
0.0
 40
0.0
 40
0.0
 40
0.0044686031487362
 40
0.0090633591171204
 40
0.0137744272559934
 40
0.0137744272559934
 40
0.0137744272559934
 40
0.0137744272559934
 10
7.5260386089
 20
10.585916286
 30
0.0
 10
7.526142499296582
 20
10.58740262881078
 30
0.0
 10
7.526353213012193
 20
10.5904172752712
 30
0.0
 10
7.527060681419817
 20
10.59496095817115
 30
0.0
 10
7.527771991087188
 20
10.59798085277948
 30
0.0
 10
7.528132091199999
 20
10.5995096727
 30
0.0
 11
7.5260386089
 21
10.585916286
 31
0.0
 11
7.526412216599999
 21
10.5903692436
 31
0.0
 11
7.5271115966
 21
10.5949104604
 31
0.0
 11
7.528132091199999
 21
10.5995096727
 31
0.0
  0
SPLINE
  5
D3
330
2
100
AcDbEntity
  8
0
100
AcDbSpline
210
0.0
220
0.0
230
1.0
 70
     8
 71
     3
 72
    10
 73
     6
 74
     4
 42
0.0000000001
 43
0.0000000001
 44
0.0000000001
 40
0.0
 40
0.0
 40
0.0
 40
0.0
 40
0.0159244640612447
 40
0.0318516512202383
 40
0.0478776725991556
 40
0.0478776725991556
 40
0.0478776725991556
 40
0.0478776725991556
 10
7.5281320945
 20
10.599509673
 30
0.0
 10
7.532526025386003
 20
10.5965314313217
 30
0.0
 10
7.541314638524162
 20
10.59057443868308
 30
0.0
 10
7.554486296769224
 20
10.5815629921104
 30
0.0
 10
7.563254527274628
 20
10.57551621558256
 30
0.0
 10
7.567652202999999
 20
10.5724834757
 30
0.0
 11
7.5281320945
 21
10.599509673
 31
0.0
 11
7.541307417199999
 21
10.5905654331
 31
0.0
 11
7.5544535316
 21
10.5815734941
 31
0.0
 11
7.567652202999999
 21
10.5724834757
 31
0.0
  0
SPLINE
  5
D4
330
2
100
AcDbEntity
  8
0
100
AcDbSpline
210
0.0
220
0.0
230
1.0
 70
    24
 71
     3
 72
     8
 73
     4
 74
     2
 42
0.0000000001
 43
0.0000000001
 44
0.0000000001
 40
0.0
 40
0.0
 40
0.0
 40
0.0
 40
0.0104739373942195
 40
0.0104739373942195
 40
0.0104739373942195
 40
0.0104739373942195
 10
7.3891234383
 20
10.6307215815
 30
0.0
 10
7.3859585702
 20
10.6321956482
 30
0.0
 10
7.3827937021
 20
10.6336697149
 30
0.0
 10
7.379628834
 20
10.6351437816
 30
0.0
 11
7.3891234383
 21
10.6307215815
 31
0.0
 11
7.379628834
 21
10.6351437816
 31
0.0
  0
SPLINE
  5
D5
330
2
100
AcDbEntity
  8
0
100
AcDbSpline
210
0.0
220
0.0
230
1.0
 70
     8
 71
     3
 72
    10
 73
     6
 74
     4
 42
0.0000000001
 43
0.0000000001
 44
0.0000000001
 40
0.0
 40
0.0
 40
0.0
 40
0.0
 40
0.0150409122031879
 40
0.0349319871341599
 40
0.0578551501749618
 40
0.0578551501749618
 40
0.0578551501749618
 40
0.0578551501749618
 10
7.379628834
 20
10.6351437816
 30
0.0
 10
7.376662712283918
 20
10.63923027418036
 30
0.0
 10
7.369773999403687
 20
10.64872100880553
 30
0.0
 10
7.365041074842468
 20
10.66784630433097
 30
0.0
 10
7.364015865851575
 20
10.68205133651152
 30
0.0
 10
7.3634669589
 20
10.6896568501
 30
0.0
 11
7.379628834
 21
10.6351437816
 31
0.0
 11
7.371477812
 21
10.6477845838
 31
0.0
 11
7.3658238236
 21
10.6668551705
 31
0.0
 11
7.3634669589
 21
10.6896568501
 31
0.0
  0
SPLINE
  5
D6
330
2
100
AcDbEntity
  8
0
100
AcDbSpline
210
0.0
220
0.0
230
1.0
 70
     8
 71
     3
 72
    15
 73
    11
 74
     9
 42
0.0000000001
 43
0.0000000001
 44
0.0000000001
 40
0.0
 40
0.0
 40
0.0
 40
0.0
 40
0.0187503660799898
 40
0.0388853524810821
 40
0.0606468688527625
 40
0.083783629975368
 40
0.1083104296945825
 40
0.1345778178851064
 40
0.1627209765814197
 40
0.1922305620830988
 40
0.1922305620830988
 40
0.1922305620830988
 40
0.1922305620830988
 10
7.3634669588
 20
10.6896568501
 30
0.0
 10
7.369721520687269
 20
10.68938330761734
 30
0.0
 10
7.382692512430236
 20
10.68881602291414
 30
0.0
 10
7.402501031930622
 20
10.68430166182857
 30
0.0
 10
7.422940529684587
 20
10.67696437144821
 30
0.0
 10
7.443670412433337
 20
10.66655366938974
 30
0.0
 10
7.464463542426893
 20
10.65327038885317
 30
0.0
 10
7.485440131291285
 20
10.63733024788328
 30
0.0
 10
7.506244782968961
 20
10.61861420097363
 30
0.0
 10
7.520721949621442
 20
10.60597768164146
 30
0.0
 10
7.5281320945
 20
10.599509673
 30
0.0
 11
7.3634669588
 21
10.6896568501
 31
0.0
 11
7.382167811799999
 21
10.688295114
 31
0.0
 11
7.401850483099999
 21
10.6840512799
 31
0.0
 11
7.422342710999999
 21
10.6767278797
 31
0.0
 11
7.443060577599999
 21
10.6664283788
 31
0.0
 11
7.463790271899999
 21
10.6533194628
 31
0.0
 11
7.484715605899999
 21
10.6374416141
 31
0.0
 11
7.5059499885
 21
10.6189716824
 31
0.0
 11
7.5281320945
 21
10.599509673
 31
0.0
  0
SPLINE
  5
D7
330
2
100
AcDbEntity
  8
0
100
AcDbSpline
210
0.0
220
0.0
230
1.0
 70
    24
 71
     3
 72
     8
 73
     4
 74
     2
 42
0.0000000001
 43
0.0000000001
 44
0.0000000001
 40
0.0
 40
0.0
 40
0.0
 40
0.0
 40
0.0130976507561124
 40
0.0130976507561124
 40
0.0130976507561124
 40
0.0130976507561124
 10
10.2197359168
 20
9.436471581499999
 30
0.0
 10
10.21539000353333
 20
9.436054475566665
 30
0.0
 10
10.21104409026666
 20
9.435637369633331
 30
0.0
 10
10.206698177
 20
9.435220263699999
 30
0.0
 11
10.2197359168
 21
9.436471581499999
 31
0.0
 11
10.206698177
 21
9.435220263699999
 31
0.0
  0
SPLINE
  5
D8
330
2
100
AcDbEntity
  8
0
100
AcDbSpline
210
0.0
220
0.0
230
1.0
 70
    24
 71
     3
 72
     8
 73
     4
 74
     2
 42
0.0000000001
 43
0.0000000001
 44
0.0000000001
 40
0.0
 40
0.0
 40
0.0
 40
0.0
 40
0.0026131126253783
 40
0.0026131126253783
 40
0.0026131126253783
 40
0.0026131126253783
 10
10.206698177
 20
9.435220263699999
 30
0.0
 10
10.20584627303333
 20
9.435038698199999
 30
0.0
 10
10.20499436906666
 20
9.434857132699999
 30
0.0
 10
10.2041424651
 20
9.434675567199999
 30
0.0
 11
10.206698177
 21
9.435220263699999
 31
0.0
 11
10.2041424651
 21
9.434675567199999
 31
0.0
  0
SPLINE
  5
D9
330
2
100
AcDbEntity
  8
0
100
AcDbSpline
210
0.0
220
0.0
230
1.0
 70
     8
 71
     3
 72
     9
 73
     5
 74
     3
 42
0.0000000001
 43
0.0000000001
 44
0.0000000001
 40
0.0
 40
0.0
 40
0.0
 40
0.0
 40
0.0154764705495803
 40
0.019248231497698
 40
0.019248231497698
 40
0.019248231497698
 40
0.019248231497698
 10
10.2041424651
 20
9.434675567199999
 30
0.0
 10
10.19916528991896
 20
9.433212556299455
 30
0.0
 10
10.19297513049068
 20
9.431392995928302
 30
0.0
 10
10.18733041451875
 20
9.42832843036485
 30
0.0
 10
10.1862243119
 20
9.4277279176
 30
0.0
 11
10.2041424651
 21
9.434675567199999
 31
0.0
 11
10.1895635636
 21
9.429481650399999
 31
0.0
 11
10.1862243119
 21
9.4277279176
 31
0.0
  0
SPLINE
  5
DA
330
2
100
AcDbEntity
  8
0
100
AcDbSpline
210
0.0
220
0.0
230
1.0
 70
     8
 71
     3
 72
     9
 73
     5
 74
     3
 42
0.0000000001
 43
0.0000000001
 44
0.0000000001
 40
0.0
 40
0.0
 40
0.0
 40
0.0
 40
0.0115223317053456
 40
0.0127873139740558
 40
0.0127873139740558
 40
0.0127873139740558
 40
0.0127873139740558
 10
10.1862243119
 20
9.4277279176
 30
0.0
 10
10.18294821762127
 20
9.425701267590145
 30
0.0
 10
10.17931245645573
 20
9.423452121266791
 30
0.0
 10
10.1760450273204
 20
9.420713335854456
 30
0.0
 10
10.1757217976
 20
9.4204424021
 30
0.0
 11
10.1862243119
 21
9.4277279176
 31
0.0
 11
10.1766950913
 21
9.4212504117
 31
0.0
 11
10.1757217976
 21
9.4204424021
 31
0.0
  0
SPLINE
  5
DB
330
2
100
AcDbEntity
  8
0
100
AcDbSpline
210
0.0
220
0.0
230
1.0
 70
     8
 71
     3
 72
    10
 73
     6
 74
     4
 42
0.0000000001
 43
0.0000000001
 44
0.0000000001
 40
0.0
 40
0.0
 40
0.0
 40
0.0
 40
0.0017831887875291
 40
0.0047212575838201
 40
0.008462207868544
 40
0.008462207868544
 40
0.008462207868544
 40
0.008462207868544
 10
11.5914471962
 20
10.036831812
 30
0.0
 10
11.59203955996546
 20
10.03678269688256
 30
0.0
 10
11.5936079311551
 20
10.03665265730274
 30
0.0
 10
11.5964183508979
 20
10.03641158499635
 30
0.0
 10
11.598636204482
 20
10.03621738553816
 30
0.0
 10
11.5998784348
 20
10.0361086135
 30
0.0
 11
11.5914471962
 21
10.036831812
 31
0.0
 11
11.5932242341
 21
10.0366838304
 31
0.0
 11
11.596151636
 21
10.0364336977
 31
0.0
 11
11.5998784348
 21
10.0361086135
 31
0.0
  0
SPLINE
  5
DC
330
2
100
AcDbEntity
  8
0
100
AcDbSpline
210
0.0
220
0.0
230
1.0
 70
     8
 71
     3
 72
     9
 73
     5
 74
     3
 42
0.0000000001
 43
0.0000000001
 44
0.0000000001
 40
0.0
 40
0.0
 40
0.0
 40
0.0
 40
0.004648305478889
 40
0.0103531023681399
 40
0.0103531023681399
 40
0.0103531023681399
 40
0.0103531023681399
 10
11.5998784348
 20
10.0361086135
 30
0.0
 10
11.6014218947857
 20
10.03597265636687
 30
0.0
 10
11.60485962049149
 20
10.0356698410456
 30
0.0
 10
11.60829840851725
 20
10.03537932900066
 30
0.0
 10
11.6101932596
 20
10.0352192502
 30
0.0
 11
11.5998784348
 21
10.0361086135
 31
0.0
 11
11.6045090289
 21
10.0357032222
 31
0.0
 11
11.6101932596
 21
10.0352192502
 31
0.0
  0
SPLINE
  5
DD
330
2
100
AcDbEntity
  8
0
100
AcDbSpline
210
0.0
220
0.0
230
1.0
 70
     8
 71
     3
 72
    34
 73
    30
 74
    28
 42
0.0000000001
 43
0.0000000001
 44
0.0000000001
 40
0.0
 40
0.0
 40
0.0
 40
0.0
 40
0.0069134511500824
 40
0.0151419806449032
 40
0.0247116538733575
 40
0.0356351626967638
 40
0.0479948691089096
 40
0.0618693974065754
 40
0.0773099927220388
 40
0.0944170431429904
 40
0.1132439636825695
 40
0.1337320161171332
 40
0.155817889472134
 40
0.1796228799707042
 40
0.2054957185324468
 40
0.2325275565457789
 40
0.258546803851161
 40
0.2820860902266973
 40
0.3033230576184397
 40
0.3238836139270174
 40
0.3437861868005903
 40
0.3610402165277984
 40
0.3743892808612952
 40
0.3839778930877853
 40
0.3906254835790615
 40
0.395170118323359
 40
0.3982290523797873
 40
0.400161537289275
 40
0.4010440744355386
 40
0.4010440744355386
 40
0.4010440744355386
 40
0.4010440744355386
 10
11.6101932596
 20
10.0352192502
 30
0.0
 10
11.6124900653022
 20
10.03503127922382
 30
0.0
 10
11.61752057564109
 20
10.03461958138706
 30
0.0
 10
11.6257321833001
 20
10.03397043340467
 30
0.0
 10
11.63527801513926
 20
10.03323753250861
 30
0.0
 10
11.64620073876504
 20
10.03245112514452
 30
0.0
 10
11.65855712427325
 20
10.03159627484897
 30
0.0
 10
11.67241824887362
 20
10.03067590920471
 30
0.0
 10
11.6878625654844
 20
10.02971658174238
 30
0.0
 10
11.70495596406436
 20
10.02867890224314
 30
0.0
 10
11.72373212884979
 20
10.02759610511799
 30
0.0
 10
11.74416613439317
 20
10.02643537122335
 30
0.0
 10
11.76625876200703
 20
10.02521465528025
 30
0.0
 10
11.79014751459093
 20
10.02396762546088
 30
0.0
 10
11.81568702796587
 20
10.02272068252221
 30
0.0
 10
11.84196886581838
 20
10.02154533848976
 30
0.0
 10
11.86748074033263
 20
10.02057431714563
 30
0.0
 10
11.89106777025829
 20
10.01983461837292
 30
0.0
 10
11.91283864684871
 20
10.01924187549679
 30
0.0
 10
11.9333974182217
 20
10.01867079020178
 30
0.0
 10
11.95262985267848
 20
10.01816612413925
 30
0.0
 10
11.96945949955118
 20
10.01773244513885
 30
0.0
 10
11.98285248733493
 20
10.01739623754632
 30
0.0
 10
11.99271141849919
 20
10.0171572652879
 30
0.0
 10
11.99963673010177
 20
10.0170125809295
 30
0.0
 10
12.00438657125223
 20
10.01692354482732
 30
0.0
 10
12.00756462214583
 20
10.01689312192469
 30
0.0
 10
12.00952334382549
 20
10.01686412127804
 30
0.0
 10
12.01046079981278
 20
10.01690777936092
 30
0.0
 10
12.0107547015
 20
10.0169214666
 30
0.0
 11
11.6101932596
 21
10.0352192502
 31
0.0
 11
11.617083911
 21
10.0346582421
 31
0.0
 11
11.6252867497
 21
10.034008523
 31
0.0
 11
11.6348285863
 21
10.0332791397
 31
0.0
 11
11.6457235732
 21
10.0324902763
 31
0.0
 11
11.6580537554
 21
10.0316364909
 31
0.0
 11
11.6718979686
 21
10.0307198141
 31
0.0
 11
11.6873083559
 21
10.0297544401
 31
0.0
 11
11.7043842137
 21
10.0287218441
 31
0.0
 11
11.7231794806
 21
10.02763057
 31
0.0
 11
11.7436346723
 21
10.0264706454
 31
0.0
 11
11.765687177
 21
10.0252570399
 31
0.0
 11
11.7894598139
 21
10.0240163516
 31
0.0
 11
11.8153019739
 21
10.0227567716
 31
0.0
 11
11.8423073402
 21
10.0215607543
 31
0.0
 11
11.8683078447
 21
10.0205733354
 31
0.0
 11
11.8918353153
 21
10.019827594
 31
0.0
 11
11.9130639785
 21
10.0192337567
 31
0.0
 11
11.9336168058
 21
10.0186700496
 31
0.0
 11
11.9535124423
 21
10.01814464
 31
0.0
 11
11.9707607694
 21
10.0177010703
 31
0.0
 11
11.9841056533
 21
10.017367016
 31
0.0
 11
11.9936915736
 21
10.0171398235
 31
0.0
 11
12.0003377094
 21
10.0170007614
 31
0.0
 11
12.0048816714
 21
10.0169225674
 31
0.0
 11
12.0079403899
 21
10.0168862535
 31
0.0
 11
12.0098728748
 21
10.016886062
 31
0.0
 11
12.0107547015
 21
10.0169214666
 31
0.0
  0
SPLINE
  5
DE
330
2
100
AcDbEntity
  8
0
100
AcDbSpline
210
0.0
220
0.0
230
1.0
 70
    24
 71
     3
 72
     8
 73
     4
 74
     2
 42
0.0000000001
 43
0.0000000001
 44
0.0000000001
 40
0.0
 40
0.0
 40
0.0
 40
0.0
 40
0.0061851507442035
 40
0.0061851507442035
 40
0.0061851507442035
 40
0.0061851507442035
 10
9.4532166615
 20
9.436471581499999
 30
0.0
 10
9.455275629633334
 20
9.436365153766665
 30
0.0
 10
9.457334597766665
 20
9.436258726033333
 30
0.0
 10
9.459393565899999
 20
9.436152298299999
 30
0.0
 11
9.4532166615
 21
9.436471581499999
 31
0.0
 11
9.459393565899999
 21
9.436152298299999
 31
0.0
  0
SPLINE
  5
DF
330
2
100
AcDbEntity
  8
0
100
AcDbSpline
210
0.0
220
0.0
230
1.0
 70
     8
 71
     3
 72
    10
 73
     6
 74
     4
 42
0.0000000001
 43
0.0000000001
 44
0.0000000001
 40
0.0
 40
0.0
 40
0.0
 40
0.0
 40
0.0103877114552377
 40
0.0212837586577499
 40
0.0324763194602239
 40
0.0324763194602239
 40
0.0324763194602239
 40
0.0324763194602239
 10
12.1314651113
 20
10.976284543
 30
0.0
 10
12.12967855755587
 20
10.97330807009663
 30
0.0
 10
12.12601802280929
 20
10.96720946683839
 30
0.0
 10
12.12284541629389
 20
10.95671807620999
 30
0.0
 10
12.12226913167916
 20
10.94936734823106
 30
0.0
 10
12.1219771214
 20
10.9456426468
 30
0.0
 11
12.1314651113
 21
10.976284543
 31
0.0
 11
12.1264821235
 21
10.9671700281
 31
0.0
 11
12.1232592257
 21
10.9567615328
 31
0.0
 11
12.1219771214
 21
10.9456426468
 31
0.0
  0
SPLINE
  5
E0
330
2
100
AcDbEntity
  8
0
100
AcDbSpline
210
0.0
220
0.0
230
1.0
 70
     8
 71
     3
 72
    10
 73
     6
 74
     4
 42
0.0000000001
 43
0.0000000001
 44
0.0000000001
 40
0.0
 40
0.0
 40
0.0
 40
0.0
 40
0.0616952963740738
 40
0.1218141531832028
 40
0.1790555625638335
 40
0.1790555625638335
 40
0.1790555625638335
 40
0.1790555625638335
 10
12.1815027177
 20
11.1457215815
 30
0.0
 10
12.18035002466449
 20
11.12515725875903
 30
0.0
 10
12.17807409223117
 20
11.08455407330243
 30
0.0
 10
12.16134237680993
 20
11.02642034803131
 30
0.0
 10
12.14126007335085
 20
10.99272106419058
 30
0.0
 10
12.1314651113
 20
10.976284543
 30
0.0
 11
12.1815027177
 21
11.1457215815
 31
0.0
 11
12.1757086041
 21
11.0842989648
 31
0.0
 11
12.1586814618
 21
11.0266417591
 31
0.0
 11
12.1314651113
 21
10.976284543
 31
0.0
  0
SPLINE
  5
E1
330
2
100
AcDbEntity
  8
0
100
AcDbSpline
210
0.0
220
0.0
230
1.0
 70
     8
 71
     3
 72
    10
 73
     6
 74
     4
 42
0.0000000001
 43
0.0000000001
 44
0.0000000001
 40
0.0
 40
0.0
 40
0.0
 40
0.0
 40
0.0017831890864961
 40
0.0047212578827853
 40
0.0084622081675093
 40
0.0084622081675093
 40
0.0084622081675093
 40
0.0084622081675093
 10
8.045784307699999
 20
10.036831812
 30
0.0
 10
8.045191943834394
 20
10.0367826968843
 30
0.0
 10
8.043623572543237
 20
10.03665265732264
 30
0.0
 10
8.040813152702469
 20
10.03641158499187
 30
0.0
 10
8.03859529911813
 20
10.03621738553655
 30
0.0
 10
8.037353068799999
 20
10.0361086135
 30
0.0
 11
8.045784307699999
 21
10.036831812
 31
0.0
 11
8.044007269499999
 21
10.0366838304
 31
0.0
 11
8.0410798676
 21
10.0364336977
 31
0.0
 11
8.037353068799999
 21
10.0361086135
 31
0.0
  0
SPLINE
  5
E2
330
2
100
AcDbEntity
  8
0
100
AcDbSpline
210
0.0
220
0.0
230
1.0
 70
     8
 71
     3
 72
     9
 73
     5
 74
     3
 42
0.0000000001
 43
0.0000000001
 44
0.0000000001
 40
0.0
 40
0.0
 40
0.0
 40
0.0
 40
0.004648305478889
 40
0.0103531024677794
 40
0.0103531024677794
 40
0.0103531024677794
 40
0.0103531024677794
 10
8.037353068799999
 20
10.0361086135
 30
0.0
 10
8.035809608814339
 20
10.03597265636636
 30
0.0
 10
8.032371883075562
 20
10.03566984104104
 30
0.0
 10
8.028933095016153
 20
10.03537932899985
 30
0.0
 10
8.027038243899999
 20
10.0352192502
 30
0.0
 11
8.037353068799999
 21
10.0361086135
 31
0.0
 11
8.032722474699999
 21
10.0357032222
 31
0.0
 11
8.027038243899999
 21
10.0352192502
 31
0.0
  0
SPLINE
  5
E3
330
2
100
AcDbEntity
  8
0
100
AcDbSpline
210
0.0
220
0.0
230
1.0
 70
     8
 71
     3
 72
    34
 73
    30
 74
    28
 42
0.0000000001
 43
0.0000000001
 44
0.0000000001
 40
0.0
 40
0.0
 40
0.0
 40
0.0
 40
0.0069134510504122
 40
0.015141980545233
 40
0.024711653773689
 40
0.0356351625970945
 40
0.0479948690092412
 40
0.0618693973069061
 40
0.0773099926223686
 40
0.0944170431431396
 40
0.113243963582885
 40
0.1337320160174488
 40
0.1558178893724504
 40
0.1796228798710197
 40
0.2054957184327623
 40
0.2325275564460953
 40
0.2585468037514765
 40
0.2820860901270138
 40
0.3033230576187162
 40
0.3238836138273323
 40
0.3437861867009062
 40
0.3610402164281133
 40
0.3743892807616093
 40
0.3839778929881001
 40
0.3906254834793763
 40
0.3951701183236591
 40
0.3982290522800944
 40
0.4001615371895829
 40
0.4010440743358456
 40
0.4010440743358456
 40
0.4010440743358456
 40
0.4010440743358456
 10
8.027038243899999
 20
10.0352192502
 30
0.0
 10
8.024741438231181
 20
10.03503127922318
 30
0.0
 10
8.019710927926006
 20
10.0346195813818
 30
0.0
 10
8.011499320299822
 20
10.03397043340557
 30
0.0
 10
8.001953488460763
 20
10.03323753250831
 30
0.0
 10
7.991030764834944
 20
10.03245112514464
 30
0.0
 10
7.978674379326754
 20
10.03159627484882
 30
0.0
 10
7.964813254726345
 20
10.03067590920526
 30
0.0
 10
7.949368938082534
 20
10.02971658173794
 30
0.0
 10
7.932275539501813
 20
10.02867890225145
 30
0.0
 10
7.913499374717165
 20
10.02759610511298
 30
0.0
 10
7.893065369206778
 20
10.02643537122429
 30
0.0
 10
7.87097274159298
 20
10.02521465527996
 30
0.0
 10
7.847083989009067
 20
10.02396762546095
 30
0.0
 10
7.821544475634129
 20
10.02272068252222
 30
0.0
 10
7.795262637781625
 20
10.02154533848964
 30
0.0
 10
7.769750763267353
 20
10.02057431714607
 30
0.0
 10
7.746163733308447
 20
10.01983461837045
 30
0.0
 10
7.724392856717848
 20
10.01924187550064
 30
0.0
 10
7.703834085345016
 20
10.01867079019969
 30
0.0
 10
7.684601650921514
 20
10.01816612413949
 30
0.0
 10
7.667772004048814
 20
10.0177324451389
 30
0.0
 10
7.654379016265069
 20
10.01739623754608
 30
0.0
 10
7.644520085100792
 20
10.01715726528846
 30
0.0
 10
7.637594773464925
 20
10.01701258092758
 30
0.0
 10
7.632844932314406
 20
10.01692354482935
 30
0.0
 10
7.629666881420837
 20
10.0168931219239
 30
0.0
 10
7.627708159774504
 20
10.01686412127807
 30
0.0
 10
7.626770703787224
 20
10.01690777936093
 30
0.0
 10
7.6264768021
 20
10.0169214666
 30
0.0
 11
8.027038243899999
 21
10.0352192502
 31
0.0
 11
8.0201475926
 21
10.0346582421
 31
0.0
 11
8.011944753899999
 21
10.034008523
 31
0.0
 11
8.002402917299999
 21
10.0332791397
 31
0.0
 11
7.9915079304
 21
10.0324902763
 31
0.0
 11
7.979177748199999
 21
10.0316364909
 31
0.0
 11
7.965333535
 21
10.0307198141
 31
0.0
 11
7.949923147699999
 21
10.0297544401
 31
0.0
 11
7.932847289799999
 21
10.0287218441
 31
0.0
 11
7.914052022999999
 21
10.02763057
 31
0.0
 11
7.8935968313
 21
10.0264706454
 31
0.0
 11
7.871544326599999
 21
10.0252570399
 31
0.0
 11
7.8477716897
 21
10.0240163516
 31
0.0
 11
7.8219295297
 21
10.0227567716
 31
0.0
 11
7.7949241634
 21
10.0215607543
 31
0.0
 11
7.7689236589
 21
10.0205733354
 31
0.0
 11
7.745396188299999
 21
10.019827594
 31
0.0
 11
7.724167525
 21
10.0192337567
 31
0.0
 11
7.703614697799999
 21
10.0186700496
 31
0.0
 11
7.683719061299999
 21
10.01814464
 31
0.0
 11
7.666470734199999
 21
10.0177010703
 31
0.0
 11
7.6531258503
 21
10.017367016
 31
0.0
 11
7.64353993
 21
10.0171398235
 31
0.0
 11
7.636893794199999
 21
10.0170007614
 31
0.0
 11
7.6323498321
 21
10.0169225674
 31
0.0
 11
7.629291113699999
 21
10.0168862535
 31
0.0
 11
7.627358628799999
 21
10.016886062
 31
0.0
 11
7.6264768021
 21
10.0169214666
 31
0.0
  0
ATTDEF
  5
E4
330
2
100
AcDbEntity
  8
0
100
AcDbText
 10
9.818615731161433
 20
11.31772156018455
 30
0.0
 40
0.2
  1
Vitreous-China
100
AcDbAttributeDefinition
  3

  2
MATERIAL
 70
     9
1001
AcDbAttr
1070
     0
1070
     1
  0
ATTDEF
  5
E5
330
2
100
AcDbEntity
  8
0
100
AcDbText
 10
9.818615731161433
 20
11.65105489351789
 30
0.0
 40
0.2
  1
Retrospect
100
AcDbAttributeDefinition
  3

  2
PRODUCT-NAME
 70
     9
1001
AcDbAttr
1070
     0
1070
     1
  0
ATTDEF
  5
E6
330
2
100
AcDbEntity
  8
0
100
AcDbText
 10
9.818615731161433
 20
11.98438822685122
 30
0.0
 40
0.2
  1
0282
100
AcDbAttributeDefinition
  3

  2
FIXTURE-NUMBER
 70
     9
1001
AcDbAttr
1070
     0
1070
     1
  0
ATTDEF
  5
E7
330
2
100
AcDbEntity
  8
0
100
AcDbText
 10
9.818615731161433
 20
12.31772156018456
 30
0.0
 40
0.2
  1
American-Standard
100
AcDbAttributeDefinition
  3

  2
BRAND
 70
     9
1001
AcDbAttr
1070
     0
1070
     1
  0
ENDSEC
  0
SECTION
  2
OBJECTS
  0
DICTIONARY
  5
7
330
0
100
AcDbDictionary
281
     1
  3
ACAD_COLOR
350
2E
  3
ACAD_GROUP
350
29
  3
ACAD_LAYOUT
350
D
  3
ACAD_MATERIAL
350
9
  3
ACAD_MLINESTYLE
350
2A
  3
ACAD_PLOTSETTINGS
350
2B
  3
ACAD_PLOTSTYLENAME
350
6
  3
ACAD_TABLESTYLE
350
2F
  3
ACAD_VISUALSTYLE
350
23
  3
AcDbVariableDictionary
350
F7
  3
DWGPROPS
350
10D
  0
DICTIONARY
  5
24
330
20
100
AcDbDictionary
280
     1
281
     1
  0
DICTIONARY
  5
16
330
15
100
AcDbDictionary
280
     1
281
     1
  3
ACAD_LAYERSTATES
360
17
  0
DICTIONARY
  5
2E
102
{ACAD_REACTORS
330
7
102
}
330
7
100
AcDbDictionary
281
     1
  0
DICTIONARY
  5
29
102
{ACAD_REACTORS
330
7
102
}
330
7
100
AcDbDictionary
281
     1
  0
DICTIONARY
  5
D
102
{ACAD_REACTORS
330
7
102
}
330
7
100
AcDbDictionary
281
     1
  3
Layout1
350
11
  3
Model
350
C
  0
DICTIONARY
  5
9
102
{ACAD_REACTORS
330
7
102
}
330
7
100
AcDbDictionary
281
     1
  3
ByBlock
350
2D
  3
ByLayer
350
2C
  3
Global
350
8
  0
DICTIONARY
  5
2A
102
{ACAD_REACTORS
330
7
102
}
330
7
100
AcDbDictionary
281
     1
  3
STANDARD
350
30
  0
DICTIONARY
  5
2B
102
{ACAD_REACTORS
330
7
102
}
330
7
100
AcDbDictionary
281
     1
  0
ACDBDICTIONARYWDFLT
  5
6
102
{ACAD_REACTORS
330
7
102
}
330
7
100
AcDbDictionary
281
     1
  3
Normal
350
5
100
AcDbDictionaryWithDefault
340
5
  0
DICTIONARY
  5
2F
102
{ACAD_REACTORS
330
7
102
}
330
7
100
AcDbDictionary
281
     1
  3
Standard
350
31
  0
DICTIONARY
  5
23
102
{ACAD_REACTORS
330
7
102
}
330
7
100
AcDbDictionary
281
     1
  3
2dWireframe
350
22
  3
3D Hidden
350
103
  3
3dWireframe
350
33
  3
Basic
350
102
  3
Brighten
350
106
  3
ColorChange
350
10A
  3
Conceptual
350
104
  3
Dim
350
105
  3
Facepattern
350
109
  3
Flat
350
FE
  3
FlatWithEdges
350
FF
  3
Gouraud
350
100
  3
GouraudWithEdges
350
101
  3
Linepattern
350
108
  3
Realistic
350
32
  3
Thicken
350
107
  0
DICTIONARY
  5
F7
102
{ACAD_REACTORS
330
7
102
}
330
7
100
AcDbDictionary
281
     1
  3
CTABLESTYLE
350
F8
  3
DIMASSOC
350
FC
  3
HIDETEXT
350
FB
  3
INDEXCTL
350
FA
  3
SORTENTS
350
F9
  0
XRECORD
  5
10D
102
{ACAD_REACTORS
330
7
102
}
330
7
100
AcDbXrecord
280
     1
  1
DWGPROPS COOKIE
  2

  3

  4

  6

  7

  8
espositoa
  9

300
=
301
=
302
=
303
=
304
=
305
=
306
=
307
=
308
=
309
=
 40
0.0198373263888889
 41
2444971.833333334
 42
2454713.634683693
  1

 90
        0
  0
DICTIONARY
  5
17
102
{ACAD_REACTORS
330
16
102
}
330
16
100
AcDbDictionary
281
     1
  0
LAYOUT
  5
11
102
{ACAD_XDICTIONARY
360
12
102
}
102
{ACAD_REACTORS
330
D
102
}
330
D
100
AcDbPlotSettings
  1

  2
\\piscnafsp1\PISCHP8150C
  4
Letter
  6

 40
3.174999952316284
 41
3.174999952316284
 42
4.307403564453125
 43
3.17498779296875
 44
215.8999938964844
 45
279.3999938964844
 46
0.0
 47
0.0
 48
0.0
 49
0.0
140
0.0
141
0.0
142
1.0
143
1.0
 70
   688
 72
     0
 73
     1
 74
     5
  7

 75
    16
147
1.0
148
0.0
149
0.0
100
AcDbLayout
  1
Layout1
 70
     1
 71
     1
 10
-0.1249995194082185
 20
-0.1249999981226884
 11
10.87500024029589
 21
8.37499976158142
 12
0.0
 22
0.0
 32
0.0
 14
1.07500002421732
 24
0.8205416944083268
 34
0.0
 15
9.675000217955883
 25
7.384875249674939
 35
0.0
146
0.0
 13
0.0
 23
0.0
 33
0.0
 16
1.0
 26
0.0
 36
0.0
 17
0.0
 27
1.0
 37
0.0
 76
     0
330
E
1001
ACAD_PSEXT
1000
\\piscnafsp1\PISCHP8150C
1000
HP LaserJet 8150 Series PS
1000
865 HP Laserjet 8150
1000

1070
     0
  0
LAYOUT
  5
C
102
{ACAD_XDICTIONARY
360
110
102
}
102
{ACAD_REACTORS
330
D
102
}
330
D
100
AcDbPlotSettings
  1

  2
None
  4

  6

 40
0.0
 41
0.0
 42
0.0
 43
0.0
 44
0.0
 45
0.0
 46
0.0
 47
0.0
 48
0.0
 49
0.0
140
0.0
141
0.0
142
1.0
143
1.0
 70
  1712
 72
     0
 73
     0
 74
     0
  7
monochrome.ctb
 75
     0
147
1.0
148
0.0
149
0.0
100
AcDbLayout
  1
Model
 70
     1
 71
     0
 10
0.0
 20
0.0
 11
12.0
 21
9.0
 12
0.0
 22
0.0
 32
0.0
 14
0.0
 24
0.0
 34
0.0
 15
0.0
 25
0.0
 35
0.0
146
0.0
 13
0.0
 23
0.0
 33
0.0
 16
1.0
 26
0.0
 36
0.0
 17
0.0
 27
1.0
 37
0.0
 76
     0
330
2
331
21
  0
MATERIAL
  5
2D
102
{ACAD_XDICTIONARY
360
115
102
}
102
{ACAD_REACTORS
330
9
102
}
330
9
100
AcDbMaterial
  1
ByBlock
  0
MATERIAL
  5
2C
102
{ACAD_XDICTIONARY
360
113
102
}
102
{ACAD_REACTORS
330
9
102
}
330
9
100
AcDbMaterial
  1
ByLayer
  0
MATERIAL
  5
8
102
{ACAD_XDICTIONARY
360
10E
102
}
102
{ACAD_REACTORS
330
9
102
}
330
9
100
AcDbMaterial
  1
Global
  0
MLINESTYLE
  5
30
102
{ACAD_REACTORS
330
2A
102
}
330
2A
100
AcDbMlineStyle
  2
STANDARD
 70
     0
  3

 62
   256
 51
90.00000000000019
 52
90.00000000000019
 71
     2
 49
0.5
 62
   256
  6
BYLAYER
 49
-0.5
 62
   256
  6
BYLAYER
  0
ACDBPLACEHOLDER
  5
5
102
{ACAD_REACTORS
330
6
102
}
330
6
  0
TABLESTYLE
  5
31
102
{ACAD_XDICTIONARY
360
117
102
}
102
{ACAD_REACTORS
330
2F
102
}
330
2F
100
AcDbTableStyle
  3
Standard
 70
     0
 71
     0
 40
0.06
 41
0.06
280
     0
281
     0
  7
STANDARD
140
0.18
170
     2
 62
     0
 63
     7
283
     0
274
    -2
284
     1
 64
     0
275
    -2
285
     1
 65
     0
276
    -2
286
     1
 66
     0
277
    -2
287
     1
 67
     0
278
    -2
288
     1
 68
     0
279
    -2
289
     1
 69
     0
  7
STANDARD
140
0.25
170
     5
 62
     0
 63
     7
283
     0
274
    -2
284
     1
 64
     0
275
    -2
285
     1
 65
     0
276
    -2
286
     1
 66
     0
277
    -2
287
     1
 67
     0
278
    -2
288
     1
 68
     0
279
    -2
289
     1
 69
     0
  7
STANDARD
140
0.18
170
     5
 62
     0
 63
     7
283
     0
274
    -2
284
     1
 64
     0
275
    -2
285
     1
 65
     0
276
    -2
286
     1
 66
     0
277
    -2
287
     1
 67
     0
278
    -2
288
     1
 68
     0
279
    -2
289
     1
 69
     0
  0
VISUALSTYLE
  5
22
102
{ACAD_REACTORS
330
23
102
}
330
23
100
AcDbVisualStyle
  2
2dWireframe
 70
     4
 71
     0
 72
     2
 73
     0
 90
        0
 40
-0.6
 41
-30.0
 62
     5
 63
     7
 74
     1
 91
        4
 64
     7
 65
   257
 75
     1
175
     1
 42
1.0
 92
        0
 66
   257
 43
1.0
 76
     1
 77
     6
 78
     2
 67
     7
 79
     5
170
     0
171
     0
290
     0
174
     0
 93
        1
 44
0.0
173
     0
291
     0
 45
0.0
1001
ACAD
1000
AcDbSavedByObjectVersion
1070
     0
  0
VISUALSTYLE
  5
103
102
{ACAD_REACTORS
330
23
102
}
330
23
100
AcDbVisualStyle
  2
3D Hidden
 70
     6
 71
     1
 72
     2
 73
     2
 90
        0
 40
-0.6
 41
-30.0
 62
     5
 63
     7
 74
     2
 91
        2
 64
     7
 65
   257
 75
     2
175
     1
 42
40.0
 92
        0
 66
   257
 43
1.0
 76
     1
 77
     6
 78
     2
 67
     7
 79
     3
170
     0
171
     0
290
     0
174
     0
 93
        1
 44
0.0
173
     0
291
     0
 45
0.0
1001
ACAD
1000
AcDbSavedByObjectVersion
1070
     0
  0
VISUALSTYLE
  5
33
102
{ACAD_REACTORS
330
23
102
}
330
23
100
AcDbVisualStyle
  2
3dWireframe
 70
     5
 71
     0
 72
     2
 73
     0
 90
        0
 40
-0.6
 41
-30.0
 62
     5
 63
     7
 74
     1
 91
        4
 64
     7
 65
   257
 75
     1
175
     1
 42
1.0
 92
        0
 66
   257
 43
1.0
 76
     1
 77
     6
 78
     2
 67
     7
 79
     5
170
     0
171
     0
290
     0
174
     0
 93
        1
 44
0.0
173
     0
291
     0
 45
0.0
1001
ACAD
1000
AcDbSavedByObjectVersion
1070
     0
  0
VISUALSTYLE
  5
102
102
{ACAD_REACTORS
330
23
102
}
330
23
100
AcDbVisualStyle
  2
Basic
 70
     7
 71
     1
 72
     0
 73
     1
 90
        0
 40
-0.6
 41
-30.0
 62
     5
 63
     7
 74
     0
 91
        4
 64
     7
 65
   257
 75
     1
175
     1
 42
1.0
 92
        8
 66
     7
 43
1.0
 76
     1
 77
     6
 78
     2
 67
     7
 79
     5
170
     0
171
     0
290
     0
174
     0
 93
        1
 44
0.0
173
     0
291
     1
 45
0.0
1001
ACAD
1000
AcDbSavedByObjectVersion
1070
     0
  0
VISUALSTYLE
  5
106
102
{ACAD_REACTORS
330
23
102
}
330
23
100
AcDbVisualStyle
  2
Brighten
 70
    12
 71
     2
 72
     2
 73
     0
 90
        0
 40
-0.6
 41
-30.0
 62
     5
 63
     7
 74
     1
 91
        4
 64
     7
 65
   257
 75
     1
175
     1
 42
1.0
 92
        8
 66
     7
 43
1.0
 76
     1
 77
     6
 78
     2
 67
     7
 79
     5
170
     0
171
     0
290
     0
174
     0
 93
        1
 44
50.0
173
     0
291
     1
 45
0.0
1001
ACAD
1000
AcDbSavedByObjectVersion
1070
     0
  0
VISUALSTYLE
  5
10A
102
{ACAD_REACTORS
330
23
102
}
330
23
100
AcDbVisualStyle
  2
ColorChange
 70
    16
 71
     2
 72
     2
 73
     3
 90
        0
 40
-0.6
 41
-30.0
 62
     5
 63
     8
 74
     1
 91
        4
 64
     7
 65
   257
 75
     1
175
     1
 42
1.0
 92
        8
 66
     8
 43
1.0
 76
     1
 77
     6
 78
     2
 67
     7
 79
     5
170
     0
171
     0
290
     0
174
     0
 93
        1
 44
0.0
173
     0
291
     1
 45
0.0
1001
ACAD
1000
AcDbSavedByObjectVersion
1070
     0
  0
VISUALSTYLE
  5
104
102
{ACAD_REACTORS
330
23
102
}
330
23
100
AcDbVisualStyle
  2
Conceptual
 70
     9
 71
     3
 72
     2
 73
     0
 90
        0
 40
-0.6
 41
-30.0
 62
     5
 63
     7
 74
     2
 91
        2
 64
     7
 65
   257
 75
     1
175
     1
 42
40.0
 92
        8
 66
     7
 43
1.0
 76
     1
 77
     6
 78
     2
 67
     7
 79
     3
170
     0
171
     0
290
     0
174
     0
 93
        1
 44
0.0
173
     0
291
     0
 45
0.0
1001
ACAD
1000
AcDbSavedByObjectVersion
1070
     0
  0
VISUALSTYLE
  5
105
102
{ACAD_REACTORS
330
23
102
}
330
23
100
AcDbVisualStyle
  2
Dim
 70
    11
 71
     2
 72
     2
 73
     0
 90
        0
 40
-0.6
 41
-30.0
 62
     5
 63
     7
 74
     1
 91
        4
 64
     7
 65
   257
 75
     1
175
     1
 42
1.0
 92
        8
 66
     7
 43
1.0
 76
     1
 77
     6
 78
     2
 67
     7
 79
     5
170
     0
171
     0
290
     0
174
     0
 93
        1
 44
-50.0
173
     0
291
     1
 45
0.0
1001
ACAD
1000
AcDbSavedByObjectVersion
1070
     0
  0
VISUALSTYLE
  5
109
102
{ACAD_REACTORS
330
23
102
}
330
23
100
AcDbVisualStyle
  2
Facepattern
 70
    15
 71
     2
 72
     2
 73
     0
 90
        0
 40
-0.6
 41
-30.0
 62
     5
 63
     7
 74
     1
 91
        4
 64
     7
 65
   257
 75
     1
175
     1
 42
1.0
 92
        8
 66
     7
 43
1.0
 76
     1
 77
     6
 78
     2
 67
     7
 79
     5
170
     0
171
     0
290
     0
174
     0
 93
        1
 44
0.0
173
     0
291
     1
 45
0.0
1001
ACAD
1000
AcDbSavedByObjectVersion
1070
     0
  0
VISUALSTYLE
  5
FE
102
{ACAD_REACTORS
330
23
102
}
330
23
100
AcDbVisualStyle
  2
Flat
 70
     0
 71
     2
 72
     1
 73
     1
 90
        2
 40
-0.6
 41
30.0
 62
     5
 63
     7
 74
     0
 91
        4
 64
     7
 65
   257
 75
     1
175
     1
 42
1.0
 92
        8
 66
     7
 43
1.0
 76
     1
 77
     6
 78
     2
 67
     7
 79
     5
170
     0
171
     0
290
     0
174
     0
 93
       13
 44
0.0
173
     0
291
     1
 45
0.0
1001
ACAD
1000
AcDbSavedByObjectVersion
1070
     0
  0
VISUALSTYLE
  5
FF
102
{ACAD_REACTORS
330
23
102
}
330
23
100
AcDbVisualStyle
  2
FlatWithEdges
 70
     1
 71
     2
 72
     1
 73
     1
 90
        2
 40
-0.6
 41
30.0
 62
     5
 63
     7
 74
     1
 91
        4
 64
     7
 65
   257
 75
     1
175
     1
 42
1.0
 92
        0
 66
   257
 43
1.0
 76
     1
 77
     6
 78
     2
 67
     7
 79
     5
170
     0
171
     0
290
     0
174
     0
 93
       13
 44
0.0
173
     0
291
     1
 45
0.0
1001
ACAD
1000
AcDbSavedByObjectVersion
1070
     0
  0
VISUALSTYLE
  5
100
102
{ACAD_REACTORS
330
23
102
}
330
23
100
AcDbVisualStyle
  2
Gouraud
 70
     2
 71
     2
 72
     2
 73
     1
 90
        2
 40
-0.6
 41
30.0
 62
     5
 63
     7
 74
     0
 91
        4
 64
     7
 65
   257
 75
     1
175
     1
 42
1.0
 92
        0
 66
     7
 43
1.0
 76
     1
 77
     6
 78
     2
 67
     7
 79
     5
170
     0
171
     0
290
     0
174
     0
 93
       13
 44
0.0
173
     0
291
     1
 45
0.0
1001
ACAD
1000
AcDbSavedByObjectVersion
1070
     0
  0
VISUALSTYLE
  5
101
102
{ACAD_REACTORS
330
23
102
}
330
23
100
AcDbVisualStyle
  2
GouraudWithEdges
 70
     3
 71
     2
 72
     2
 73
     1
 90
        2
 40
-0.6
 41
30.0
 62
     5
 63
     7
 74
     1
 91
        4
 64
     7
 65
   257
 75
     1
175
     1
 42
1.0
 92
        0
 66
   257
 43
1.0
 76
     1
 77
     6
 78
     2
 67
     7
 79
     5
170
     0
171
     0
290
     0
174
     0
 93
       13
 44
0.0
173
     0
291
     1
 45
0.0
1001
ACAD
1000
AcDbSavedByObjectVersion
1070
     0
  0
VISUALSTYLE
  5
108
102
{ACAD_REACTORS
330
23
102
}
330
23
100
AcDbVisualStyle
  2
Linepattern
 70
    14
 71
     2
 72
     2
 73
     0
 90
        0
 40
-0.6
 41
-30.0
 62
     5
 63
     7
 74
     1
 91
        4
 64
     7
 65
   257
 75
     7
175
     7
 42
1.0
 92
        8
 66
     7
 43
1.0
 76
     1
 77
     6
 78
     2
 67
     7
 79
     5
170
     0
171
     0
290
     0
174
     0
 93
        1
 44
0.0
173
     0
291
     1
 45
0.0
1001
ACAD
1000
AcDbSavedByObjectVersion
1070
     0
  0
VISUALSTYLE
  5
32
102
{ACAD_REACTORS
330
23
102
}
330
23
100
AcDbVisualStyle
  2
Realistic
 70
     8
 71
     2
 72
     2
 73
     0
 90
        0
 40
-0.6
 41
-30.0
 62
     5
 63
     7
 74
     1
 91
        0
 64
     7
 65
   257
 75
     1
175
     1
 42
1.0
 92
        8
 66
     8
 43
1.0
 76
     1
 77
     6
 78
     2
 67
     7
 79
     5
170
     0
171
     0
290
     0
174
     0
 93
       13
 44
0.0
173
     0
291
     0
 45
0.0
1001
ACAD
1000
AcDbSavedByObjectVersion
1070
     0
  0
VISUALSTYLE
  5
107
102
{ACAD_REACTORS
330
23
102
}
330
23
100
AcDbVisualStyle
  2
Thicken
 70
    13
 71
     2
 72
     2
 73
     0
 90
        0
 40
-0.6
 41
-30.0
 62
     5
 63
     7
 74
     1
 91
        4
 64
     7
 65
   257
 75
     1
175
     1
 42
1.0
 92
       12
 66
     7
 43
1.0
 76
     1
 77
     6
 78
     2
 67
     7
 79
     5
170
     0
171
     0
290
     0
174
     0
 93
        1
 44
0.0
173
     0
291
     1
 45
0.0
1001
ACAD
1000
AcDbSavedByObjectVersion
1070
     0
  0
DICTIONARYVAR
  5
F8
102
{ACAD_REACTORS
330
F7
102
}
330
F7
100
DictionaryVariables
280
     0
  1
STANDARD
  0
DICTIONARYVAR
  5
FC
102
{ACAD_REACTORS
330
F7
102
}
330
F7
100
DictionaryVariables
280
     0
  1
1
  0
DICTIONARYVAR
  5
FB
102
{ACAD_REACTORS
330
F7
102
}
330
F7
100
DictionaryVariables
280
     0
  1
1
  0
DICTIONARYVAR
  5
FA
102
{ACAD_REACTORS
330
F7
102
}
330
F7
100
DictionaryVariables
280
     0
  1
0
  0
DICTIONARYVAR
  5
F9
102
{ACAD_REACTORS
330
F7
102
}
330
F7
100
DictionaryVariables
280
     0
  1
127
  0
DICTIONARY
  5
12
330
11
100
AcDbDictionary
280
     1
281
     1
  3
ACAD_XREC_ROUNDTRIP
360
112
  3
ADSK_XREC_LAYOUTTHUMBNAIL
360
13
  0
DICTIONARY
  5
110
330
C
100
AcDbDictionary
280
     1
281
     1
  3
ACAD_XREC_ROUNDTRIP
360
111
  0
DICTIONARY
  5
115
330
2D
100
AcDbDictionary
280
     1
281
     1
  3
ACAD_XREC_ROUNDTRIP
360
116
  0
DICTIONARY
  5
113
330
2C
100
AcDbDictionary
280
     1
281
     1
  3
ACAD_XREC_ROUNDTRIP
360
114
  0
DICTIONARY
  5
10E
330
8
100
AcDbDictionary
280
     1
281
     1
  3
ACAD_XREC_ROUNDTRIP
360
10F
  0
DICTIONARY
  5
117
330
31
100
AcDbDictionary
280
     1
281
     1
  3
ACAD_XREC_ROUNDTRIP
360
118
  0
XRECORD
  5
112
102
{ACAD_REACTORS
330
12
102
}
330
12
100
AcDbXrecord
280
     1
102
SHADEPLOT
 70
     0
102
SHADEPLOTRESLEVEL
 70
     2
102
SHADEPLOTCUSTOMDPI
 70
   300
  0
XRECORD
  5
13
102
{ACAD_REACTORS
330
12
102
}
330
12
100
AcDbXrecord
280
     1
310
28000000B40000008B0000000100080000000000BC61000000000000000000000001000000000000FFFFFF0000000000FFFFFF000000000000000000000000000000000000000000000000000000000000000000330000006600000099000000CC000000FF00000000330000333300006633000099330000CC330000FF3300
310
0000660000336600006666000099660000CC660000FF66000000990000339900006699000099990000CC990000FF99000000CC000033CC000066CC000099CC0000CCCC0000FFCC000000FF000033FF000066FF000099FF0000CCFF0000FFFF000000003300330033006600330099003300CC003300FF003300003333003333
310
33006633330099333300CC333300FF33330000663300336633006666330099663300CC663300FF66330000993300339933006699330099993300CC993300FF99330000CC330033CC330066CC330099CC3300CCCC3300FFCC330000FF330033FF330066FF330099FF3300CCFF3300FFFF330000006600330066006600660099
310
006600CC006600FF00660000336600333366006633660099336600CC336600FF33660000666600336666006666660099666600CC666600FF66660000996600339966006699660099996600CC996600FF99660000CC660033CC660066CC660099CC6600CCCC6600FFCC660000FF660033FF660066FF660099FF6600CCFF6600
310
FFFF660000009900330099006600990099009900CC009900FF00990000339900333399006633990099339900CC339900FF33990000669900336699006666990099669900CC669900FF66990000999900339999006699990099999900CC999900FF99990000CC990033CC990066CC990099CC9900CCCC9900FFCC990000FF99
310
0033FF990066FF990099FF9900CCFF9900FFFF99000000CC003300CC006600CC009900CC00CC00CC00FF00CC000033CC003333CC006633CC009933CC00CC33CC00FF33CC000066CC003366CC006666CC009966CC00CC66CC00FF66CC000099CC003399CC006699CC009999CC00CC99CC00FF99CC0000CCCC0033CCCC0066CC
310
CC0099CCCC00CCCCCC00FFCCCC0000FFCC0033FFCC0066FFCC0099FFCC00CCFFCC00FFFFCC000000FF003300FF006600FF009900FF00CC00FF00FF00FF000033FF003333FF006633FF009933FF00CC33FF00FF33FF000066FF003366FF006666FF009966FF00CC66FF00FF66FF000099FF003399FF006699FF009999FF00CC
310
99FF00FF99FF0000CCFF0033CCFF0066CCFF0099CCFF00CCCCFF00FFCCFF0000FFFF0033FFFF0066FFFF0099FFFF00CCFFFF00FFFFFF00000000000D0D0D001A1A1A00282828003535350043434300505050005D5D5D006B6B6B00787878008686860093939300A1A1A100AEAEAE00BBBBBB00C9C9C900D6D6D600E4E4E400
310
F1F1F100FFFFFF0000000000000000000000000000000000000000000000000000000000000000000000000000000000EFE2E2E2E2E2E2E2E2E2E2E2E2E2E2E2E2E2E2E2E2E2E2E2E2E2E2E2E2E2E2E2E2E2E2E2E2E2E2E2E2E2E2E2E2E2E2E2E2E2E2E2E2E2E2E2E2E2E2E2E2E2E2E2E2E2E2E2E2E2E2E2E2E2E2E2E2E2E2
310
E2E2E2E2E2E2E2E2E2E2E2E2E2E2E2E2E2E2E2E2E2E2E2E2E2E2E2E2E2E2E2E2E2E2E2E2E2E2E2E2E2E2E2E2E2E2E2E2E2E2E2E2E2E2E2E2E2E2E2E2E2E2E2E2E2E2E2E2E2E2E2E2E2E2E2E2E2E2E2E2E2E2E2E2E2E2E2E2E2E2E2E2E2E2E2E2E2E2E2E2E2EFE2F5F5F5F5F5F5F5F5F5F5F5F5F5F5F5F5F5F5F5F5F5F5F5F5
310
F5F5F5F5F5F5F5F5F5F5F5F5F5F5F5F5F5F5F5F5F5F5F5F5F5F5F5F5F5F5F5F5F5F5F5F5F5F5F5F5F5F5F5F5F5F5F5F5F5F5F5F5F5F5F5F5F5F5F5F5F5F5F5F5F5F5F5F5F5F5F5F5F5F5F5F5F5F5F5F5F5F5F5F5F5F5F5F5F5F5F5F5F5F5F5F5F5F5F5F5F5F5F5F5F5F5F5F5F5F5F5F5F5F5F5F5F5F5F5F5F5F5F5F5F5F5F5
310
F5F5F5F5F5F5F5F5F5F5F5F5F5F5F5F5F5F5F5F5F5F5F5F5F5F5E2EFE2F5E2E2E2E2E2E2E2E2F5F5F5F5F5F5F5F5F5E2E2E2E2E2E2E2E2E2E2E2E2E2E2E2E2F5F5F5F5F5F5F5F5F5E2E2E2E2E2E2E2E2E2E2E2E2E2E2E2E2F5F5F5F5F5F5F5F5F5E2E2E2E2E2E2E2E2E2E2E2E2E2E2E2E2F5F5F5F5F5F5F5F5F5E2E2E2E2E2
310
E2E2E2E2E2E2E2E2E2E2E2F5F5F5F5F5F5F5F5F5E2E2E2E2E2E2E2E2E2E2E2E2E2E2E2E2F5F5F5F5F5F5F5F5F5E2E2E2E2E2E2E2E2E2E2E2E2E2E2E2E2F5F5F5F5F5F5F5F5F5E2E2E2E2E2E2E2E2F5E2EFE2F5E2F5F5F5F5F5F5F5F5F5F5F5F5F5F5F5F5F5F5F5F5F5F5F5F5F5F5F5F5F5F5F5F5F5F5F5F5F5F5F5F5F5F5F5
310
F5F5F5F5F5F5F5F5F5F5F5F5F5F5F5F5F5F5F5F5F5F5F5F5F5F5F5F5F5F5F5F5F5F5F5F5F5F5F5F5F5F5F5F5F5F5F5F5F5F5F5F5F5F5F5F5F5F5F5F5F5F5F5F5F5F5F5F5F5F5F5F5F5F5F5F5F5F5F5F5F5F5F5F5F5F5F5F5F5F5F5F5F5F5F5F5F5F5F5F5F5F5F5F5F5F5F5F5F5F5F5F5F5F5F5F5F5F5F5F5F5F5F5F5F5F5F5
310
F5F5F5E2F5E2EFE2F5E2F5F5F5F5F5F5F5F5F5F5F5F5F5F5F5F5F5F5F5F5F5F5F5F5F5F5F5F5F5F5F5F5F5F5F5F5F5F5F5F5F5F5F5F5F5F5F5F5F5F5F5F5F5F5F5F5F5F5F5F5F5F5F5F5F5F5F5F5F5F5F5F5F5F5F5F5F5F5F5F5F5F5F5F5F5F5F5F5F5F5F5F5F5F5F5F5F5F5F5F5F5F5F5F5F5F5F5F5F5F5F5F5F5F5F5F5F5
310
F5F5F5F5F5F5F5F5F5F5F5F5F5F5F5F5F5F5F5F5F5F5F5F5F5F5F5F5F5F5F5F5F5F5F5F5F5F5F5F5F5F5F5F5F5F5F5F5F5F5F5F5F5F5F5F5E2F5E2EFE2F5E2F5F5F5F5F5F5F5F5F5F5F5F5F5F5F5F5F5F5F5F5F5F5F5F5F5F5F5F5F5F5F5F5F5F5F5F5F5F5F5F5F5F5F5F5F5F5F5F5F5F5F5F5F5F5F5F5F5F5F5F5F5F5F5F5
310
F5F5F5F5F5F5F5F5F5F5F5F5F5F5F5F5F5F5F5F5F5F5F5F5F5F5F5F5F5F5F5F5F5F5F5F5F5F5F5F5F5F5F5F5F5F5F5F5F5F5F5F5F5F5F5F5F5F5F5F5F5F5F5F5F5F5F5F5F5F5F5F5F5F5F5F5F5F5F5F5F5F5F5F5F5F5F5F5F5F5F5F5F5F5F5F5F5F5F5F5F5F5F5F5F5F5F5F5F5E2F5E2EFE2F5E2F5F5F5F5F5F5F5F5F5F5F5
310
F5F5F5F5F5F5F5F5F5F5F5F5F5F5F5F5F5F5F5F5F5F5F5F5F5F5F5F5F5F5F5F5F5F5F5F5F5F5F5F5F5F5F5F5F5F5F5F5F5F5F5F5F5F5F5F5F5F5F5F5F5F5F5F5F5F5F5F5F5F5F5F5F5F5F5F5F5F5F5F5F5F5F5F5F5F5F5F5F5F5F5F5F5F5F5F5F5F5F5F5F5F5F5F5F5F5F5F5F5F5F5F5F5F5F5F5F5F5F5F5F5F5F5F5F5F5F5
310
F5F5F5F5F5F5F5F5F5F5F5F5F5F5F5F5F5F5F5F5F5F5F5F5F5F5F5F5F5F5F5F5F5F5F5E2F5E2EFE2F5E2F5F5F5F5F5F5F5F5F5F5F5F5F5F5F5F5F5F5F5F5F5F5F5F5F5F5F5F5F5F5F5F5F5F5F5F5F5F5F5F5F5F5F5F5F5F5F5F5F5F5F5F5F5F5F5F5F5F5F5F5F5F5F5F5F5F5F5F5F5F5F5F5F5F5F5F5F5F5F5F5F5F5F5F5F5
310
F5F5F5F5F5F5F5F5F5F5F5F5F5F5F5F5F5F5F5F5F5F5F5F5F5F5F5F5F5F5F5F5F5F5F5F5F5F5F5F5F5F5F5F5F5F5F5F5F5F5F5F5F5F5F5F5F5F5F5F5F5F5F5F5F5F5F5F5F5F5F5F5F5F5F5F5F5F5F5F5F5F5F5F5F5F5F5F5E2F5E2EFE2F5E2F5F5F5F5F5F5F5F5F5F5F5F5F5F5F5F5F5F5F5F5F5F5F5F5F5F5F5F5F5F5F5F5
310
F5F5F5F5F5F5F5F5F5F5F5F5F5F5F5F5F5F5F5F5F5F5F5F5F5F5F5F5F5F5F5F5F5F5F5F5F5F5F5F5F5F5F5F5F5F5F5F5F5F5F5F5F5F5F5F5F5F5F5F5F5F5F5F5F5F5F5F5F5F5F5F5F5F5F5F5F5F5F5F5F5F5F5F5F5F5F5F5F5F5F5F5F5F5F5F5F5F5F5F5F5F5F5F5F5F5F5F5F5F5F5F5F5F5F5F5F5F5F5F5F5F5F5F5F5F5F5
310
F5F5F5F5F5F5F5F5F5F5F5F5F5F5E2F5E2EFE2F5E2F5F5F5F5F5F5F5F5F5F5F5F5F5F5F5F5F5F5F5F5F5F5F5F5F5F5F5F5F5F5F5F5F5F5F5F5F5F5F5F5F5F5F5F5F5F5F5F5F5F5F5F5F5F5F5F5F5F5F5F5F5F5F5F5F5F5F5F5F5F5F5F5F5F5F5F5F5F5F5F5F5F5F5F5F5F5F5F5F5F5F5F5F5F5F5F5F5F5F5F5F5F5F5F5F5F5
310
F5F5F5F5F5F5F5F5F5F5F5F5F5F5F5F5F5F5F5F5F5F5F5F5F5F5F5F5F5F5F5F5F5F5F5F5F5F5F5F5F5F5F5F5F5F5F5F5F5F5F5F5F5F5F5F5F5F5F5F5F5F5F5F5F5F5F5E2F5E2EFE2F5E2F5F5F5F5F5F5F5F5F5F5F5F5F5F5F5F5F5F5F5F5F5F5F5F5F5F5F5F5F5F5F5F5F5F5F5F5F5F5F5F5F5F5F5F5F5F5F5F5F5F5F5F5F5
310
F5F5F5F5F5F5F5F5F5F5F5F5F5F5F5F5F5F5F5F5F5F5F5F5F5F5F5F5F5F5F5F5F5F5F5F5F5F5F5F5F5F5F5F5F5F5F5F5F5F5F5F5F5F5F5F5F5F5F5F5F5F5F5F5F5F5F5F5F5F5F5F5F5F5F5F5F5F5F5F5F5F5F5F5F5F5F5F5F5F5F5F5F5F5F5F5F5F5F5F5F5F5F5F5F5F5F5F5F5F5F5F5F5F5F5F5F5F5F5F5E2F5E2EFE2F5F5
310
F5F5F5F5F5F5F5F5F5F5F5F5F5F5F5F5F5F5F5F5F5F5F5F5F5F5F5F5F5F5F5F5F5F5F5F5F5F5F5F5F5F5F5F5F5F5F5F5F5F5F5F5F5F5F5F5F5F5F5F5F5F5F5F5F5F5F5F5F5F5F5F5F5F5F5F5F5F5F5F5F5F5F5F5F5F5F5F5F5F5F5F5F5F5F5F5F5F5F5F5F5F5F5F5F5F5F5F5F5F5F5F5F5F5F5F5F5F5F5F5F5F5F5F5F5F5F5
310
F5F5F5F5F5F5F5F5F5F5F5F5F5F5F5F5F5F5F5F5F5F5F5F5F5F5F5F5F5F5F5F5F5F5F5F5F5F5F5F5F5F5F5F5F5F5F5F5E2EFE2F5F5F5F5F5F5F5F5F5F5F5F5F5F5F5F5F5F5F5F5F5F5F5F5F5F5F5F5F5F5F5F5F5F5F5F5F5F5F5F5F5F5F5F5F5F5F5F5F5F5F5F5F5F5F5F5F5F5F5F5F5F5F5F5F5F5F5F5F5F5F5F5F5F5F5F5
310
F5F5F5F5F5F5F5F5F5F5F5F5F5F5F5F5F5F5F5F5F5F5F5F5F5F5F5F5F5F5F5F5F5F5F5F5F5F5F5F5F5F5F5F5F5F5F5F5F5F5F5F5F5F5F5F5F5F5F5F5F5F5F5F5F5F5F5F5F5F5F5F5F5F5F5F5F5F5F5F5F5F5F5F5F5F5F5F5F5F5F5F5F5F5F5F5F5F5F5F5F5E2EFE2F5F5F5F5F5F5F5F5F5F5F5F5F5F5F5F5F5F5F5F5F5F5F5
310
F5F5F5F5F5F5F5F5F5F5F5F5F5F5F5F5F5F5F5F5F5F5F5F5F5F5F5F5F5F5F5F5F5F5F5F5F5F5F5F5F5F5F5F5F5F5F5F5F5F5F5F5F5F5F5F5F5F5F5F5F5F5F5F5F5F5F5F5F5F5F5F5F5F5F5F5F5F5F5F5F5F5F5F5F5F5F5F5F5F5F5F5F5F5F5F5F5F5F5F5F5F5F5F5F5F5F5F5F5F5F5F5F5F5F5F5F5F5F5F5F5F5F5F5F5F5F5
310
F5F5F5F5F5F5F5F5F5F5F5F5F5F5F5F5F5F5F5F5F5F5F5F5F5F5F5E2EFE2F5F5F5F5F5F5F5F5F5F5F5F5F5F5F5F5F5F5F5F5F5F5F5F5F5F5F5F5F5F5F5F5F5F5F5F5F5F5F5F5F5F5F5F5F5F5F5F5F5F5F5F5F5F5F5F5F5F5F5F5F5F5F5F5F5F5F5F5F5F5F5F5F5F5F5F5F5F5F5F5F5F5F5F5F5F5F5F5F5F5F5F5F5F5F5F5F5
310
F5F5F5F5F5F5F5F5F5F5F5F5F5F5F5F5F5F5F5F5F5F5F5F5F5F5F5F5F5F5F5F5F5F5F5F5F5F5F5F5F5F5F5F5F5F5F5F5F5F5F5F5F5F5F5F5F5F5F5F5F5F5F5F5F5F5F5F5F5F5F5F5F5F5F5F5F5F5F5F5E2EFE2F5F5F5F5F5F5F5F5F5F5F5F5F5F5F5F5F5F5F5F5F5F5F5F5F5F5F5F5F5F5F5F5F5F5F5F5F5F5F5F5F5F5F5F5
310
F5F5F5F5F5F5F5F5F5F5F5F5F5F5F5F5F5F5F5F5F5F5F5F5F5F5F5F5F5F5F5F5F5F5F5F5F5F5F5F5F5F5F5F5F5F5F5F5F5F5F5F5F5F5F5F5F5F5F5F5F5F5F5F5F5F5F5F5F5F5F5F5F5F5F5F5F5F5F5F5F5F5F5F5F5F5F5F5F5F5F5F5F5F5F5F5F5F5F5F5F5F5F5F5F5F5F5F5F5F5F5F5F5F5F5F5F5F5F5F5F5F5F5F5F5F5F5
310
F5F5F5F5F5F5E2EFE2F5F5F5F5F5F5F5F5F5F5F5F5F5F5F5F5F5F5F5F5F5F5F5F5F5F5F5F5F5F5F5F5F5F5F5F5F5F5F5F5F5F5F5F5F5F5F5F5F5F5F5F5F5F5F5F5F5F5F5F5F5F5F5F5F5F5F5F5F5F5F5F5F5F5F5F5F5F5F5F5F5F5F5F5F5F5F5F5F5F5F5F5F5F5F5F5F5F5F5F5F5F5F5F5F5F5F5F5F5F5F5F5F5F5F5F5F5F5
310
F5F5F5F5F5F5F5F5F5F5F5F5F5F5F5F5F5F5F5F5F5F5F5F5F5F5F5F5F5F5F5F5F5F5F5F5F5F5F5F5F5F5F5F5F5F5F5F5F5F5F5F5F5F5F5F5F5F5F5E2EFE2F5F5F5F5F5F5F5F5F5F5F5F5F5F5F5F5F5F5F5F5F5F5F5F5F5F5F5F5F5F5F5F5F5F5F5F5F5F5F5F5F5F5F5F5F5F5F5F5F5F5F5F5F5F5F5F5F5F5F5F5F5F5F5F5F5
310
F5F5F5F5F5F5F5F5F5F5F5F5F5F5F5F5F5F5F5F5F5F5F5F5F5F5F5F5F5F5F5F5F5F5F5F5F5F5F5F5F5F5F5F5F5F5F5F5F5F5F5F5F5F5F5F5F5F5F5F5F5F5F5F5F5F5F5F5F5F5F5F5F5F5F5F5F5F5F5F5F5F5F5F5F5F5F5F5F5F5F5F5F5F5F5F5F5F5F5F5F5F5F5F5F5F5F5F5F5F5F5F5E2EFE2F5F5F5F5F5F5F5F5F5F5F5F5
310
F5F5F5F5F5F5F5F5F5F5F5F5F5F5F5F5F5F5F5F5F5F5F5F5F5F5F5F5F5F5F5F5F5F5F5F5F5F5F5F5F5F5F5F5F5F5F5F5F5F5F5F5F5F5F5F5F5F5F5F5F5F5F5F5F5F5F5F5F5F5F5F5F5F5F5F5F5F5F5F5F5F5F5F5F5F5F5F5F5F5F5F5F5F5F5F5F5F5F5F5F5F5F5F5F5F5F5F5F5F5F5F5F5F5F5F5F5F5F5F5F5F5F5F5F5F5F5
310
F5F5F5F5F5F5F5F5F5F5F5F5F5F5F5F5F5F5F5F5F5F5F5F5F5F5F5F5F5F5F5F5F5F5F5F5F5F5E2EFE2F5F5F5F5F5F5F5F5F5F5F5F5F5F5F5F5F5F5F5F5F5F5F5F5F5F5F5F5F5F5F5F5F5F5F5F5F5F5F5F5F5F5F5F5F5F5F5F5F5F5F5F5F5F5F5F5F5F5F5F5F5F5F5F5F5F5F5F5F5F5F5F5F5F5F5F5F5F5F5F5F5F5F5F5F5F5
310
F5F5F5F5F5F5F5F5F5F5F5F5F5F5F5F5F5F5F5F5F5F5F5F5F5F5F5F5F5F5F5F5F5F5F5F5F5F5F5F5F5F5F5F5F5F5F5F5F5F5F5F5F5F5F5F5F5F5F5F5F5F5F5F5F5F5F5F5F5F5F5F5F5F5F5F5F5F5F5F5F5F5F5F5F5F5F5F5F5F5F5E2EFE2F5F5F5F5F5F5F5F5F5F5F5F5F5F5F5F5F5F5F5F5F5F5F5F5F5F5F5F5F5F5F5F5F5
310
F5F5F5F5F5F5F5F5F5F5F5F5F5F5F5F5F5F5F5F5F5F5F5F5F5F5F5F5F5F5F5F5F5F5F5F5F5F5F5F5F5F5F5F5F5F5F5F5F5F5F5F5F5F5F5F5F5F5F5F5F5F5F5F5F5F5F5F5F5F5F5F5F5F5F5F5F5F5F5F5F5F5F5F5F5F5F5F5F5F5F5F5F5F5F5F5F5F5F5F5F5F5F5F5F5F5F5F5F5F5F5F5F5F5F5F5F5F5F5F5F5F5F5F5F5F5F5
310
F5F5F5F5F5F5F5F5F5F5F5F5F5F5F5F5F5E2EFE2F5E2F5F5F5F5F5F5F5F5F5F5F5F5F5F5F5F5F5F5F5F5F5F5F5F5F5F5F5F5F5F5F5F5F5F5F5F5F5F5F5F5F5F5F5F5F5F5F5F5F5F5F5F5F5F5F5F5F5F5F5F5F5F5F5F5F5F5F5F5F5F5F5F5F5F5F5F5F5F5F5F5F5F5F5F5F5F5F5F5F5F5F5F5F5F5F5F5F5F5F5F5F5F5F5F5F5
310
F5F5F5F5F5F5F5F5F5F5F5F5F5F5F5F5F5F5F5F5F5F5F5F5F5F5F5F5F5F5F5F5F5F5F5F5F5F5F5F5F5F5F5F5F5F5F5F5F5F5F5F5F5F5F5F5F5F5F5F5F5F5F5F5F5F5F5F5E2F5E2EFE2F5E2F5F5F5F5F5F5F5F5F5F5F5F5F5F5F5F5F5F5F5F5F5F5F5F5F5F5F5F5F5F5F5F5F5F5F5F5F5F5F5F5F5F5F5F5F5F5F5F5F5F5F5F5
310
F5F5F5F5F5F5F5F5F5F5F5F5F5F5F5F5F5F5F5F5F5F5F5F5F5F5F5F5F5F5F5F5F5F5F5F5F5F5F5F5F5F5F5F5F5F5F5F5F5F5F5F5F5F5F5F5F5F5F5F5F5F5F5F5F5F5F5F5F5F5F5F5F5F5F5F5F5F5F5F5F5F5F5F5F5F5F5F5F5F5F5F5F5F5F5F5F5F5F5F5F5F5F5F5F5F5F5F5F5F5F5F5F5F5F5F5F5F5F5F5F5E2F5E2EFE2F5
310
E2F5F5F5F5F5F5F5F5F5F5F5F5F5F5F5F5F5F5F5F5F5F5F5F5F5F5F5F5F5F5F5F5F5F5F5F5F5F5F5F5F5F5F5F5F5F5F5F5F5F5F5F5F5F5F5F5F5F5F5F5F5F5F5F5F5F5F5F5F5F5F5F5F5F5F5F5F5F5F5F5F5F5F5F5F5F5F5F5F5F5F5F5F5F5F5F5F5F5F5F5F5F5F5F5F5F5F5F5F5F5F5F5F5F5F5F5F5F5F5F5F5F5F5F5F5F5
310
F5F5F5F5F5F5F5F5F5F5F5F5F5F5F5F5F5F5F5F5F5F5F5F5F5F5F5F5F5F5F5F5F5F5F5F5F5F5F5F5F5F5F5F5F5F5F5E2F5E2EFE2F5E2F5F5F5F5F5F5F5F5F5F5F5F5F5F5F5F5F5F5F5F5F5F5F5F5F5F5F5F5F5F5F5F5F5F5F5F5F5F5F5F5F5F5F5F5F5F5F5F5F5F5F5F5F5F5F5F5F5F5F5F5F5F5F5F5F5F5F5F5F5F5F5F5F5
310
F5F5F5F5F5F5F5F5F5F5F5F5F5F5F5F5F5F5F5F5F5F5F5F5F5F5F5F5F5F5F5F5F5F5F5F5F5F5F5F5F5F5F5F5F5F5F5F5F5F5F5F5F5F5F5F5F5F5F5F5F5F5F5F5F5F5F5F5F5F5F5F5F5F5F5F5F5F5F5F5F5F5F5F5F5F5F5F5F5F5F5F5F5F5F5F5F5F5F5F5E2F5E2EFE2F5E2F5F5F5F5F5F5F5F5F5F5F5F5F5F5F5F5F5F5F5F5
310
F5F5F5F5F5F5F5F5F5F5F5F5F5F5F5F5F5F5F5F5F5F5F5F5F5F5F5F5F5F5F5F5F5F5F5F5F5F5F5F5F5F5F5F5F5F5F5F5F5F5F5F5F5F5F5F5F5F5F5F5F5F5F5F5F5F5F5F5F5F5F5F5F5F5F5F5F5F5F5F5F5F5F5F5F5F5F5F5F5F5F5F5F5F5F5F5F5F5F5F5F5F5F5F5F5F5F5F5F5F5F5F5F5F5F5F5F5F5F5F5F5F5F5F5F5F5F5
310
F5F5F5F5F5F5F5F5F5F5F5F5F5F5F5F5F5F5F5F5F5F5F5F5F5F5E2F5E2EFE2F5E2F5F5F5F5F5F5F5F5F5F5F5F5F5F5F5F5F5F5F5F5F5F5F5F5F5F5F5F5F5F5F5F5F5F5F5F5F5F5F5F5F5F5F5F5F5F5F5F5F5F5F5F5F5F5F5F5F5F5F5F5F5F5F5F5F5F5F5F5F5F5F5F5F5F5F5F5F5F5F5F5F5F5F5F5F5F5F5F5F5F5F5F5F5F5
310
F5F5F5F5F5F5F5F5F5F5F5F5F5F5F5F5F5F5F5F5F5F5F5F5F5F5F5F5F5F5F5F5F5F5F5F5F5F5F5F5F5F5F5F5F5F5F5F5F5F5F5F5F5F5F5F5F5F5F5F5F5F5F5F5F5F5F5F5F5F5F5F5F5F5F5F5F5F5F5E2F5E2EFE2F5E2F5F5F5F5F5F5F5F5F5F5F5F5F5F5F5F5F5F5F5F5F5F5F5F5F5F5F5F5F5F5F5F5F5F5F5F5F5F5F5F5F5
310
F5F5F5F5F5F5F5F5F5F5F5F5F5F5F5F5F5F5F5F5F5F5F5F5F5F5F5F5F5F5F5F5F5F5F5F5F5F5F5F5F5F5F5F5F5F5F5F5F5F5F5F5F5F5F5F5F5F5F5F5F5F5F5F5F5F5F5F5F5F5F5F5F5F5F5F5F5F5F5F5F5F5F5F5F5F5F5F5F5F5F5F5F5F5F5F5F5F5F5F5F5F5F5F5F5F5F5F5F5F5F5F5F5F5F5F5F5F5F5F5F5F5F5F5F5F5F5
310
F5F5F5F5F5E2F5E2EFE2F5E2F5F5F5F5F5F5F5F5F5F5F5F5F5F5F5F5F5F5F5F5F5F5F5F5F5F5F5F5F5F5F5F5F5F5F5F5F5F5F5F5F5F5F5F5F5F5F5F5F5F5F5F5F5F5F5F5F5F5F5F5F5F5F5F5F5F5F5F5F5F5F5F5F5F5F5F5F5F5F5F5F5F5F5F5F5F5F5F5F5F5F5F5F5F5F5F5F5F5F5F5F5F5F5F5F5F5F5F5F5F5F5F5F5F5F5
310
F5F5F5F5F5F5F5F5F5F5F5F5F5F5F5F5F5F5F5F5F5F5F5F5F5F5F5F5F5F5F5F5F5F5F5F5F5F5F5F5F5F5F5F5F5F5F5F5F5F5F5F5F5F5F5F5F5F5E2F5E2EFE2F5E2F5F5F5F5F5F5F5F5F5F5F5F5F5F5F5F5F5F5F5F5F5F5F5F5F5F5F5F5F5F5F5F5F5F5F5F5F5F5F5F5F5F5F5F5F5F5F5F5F5F5F5F5F5F5F5F5F5F5F5F5F5F5
310
F5F5F5F5F5F5F5F5F5F5F5F5F5F5F5F5F5F5F5F5F5F5F5F5F5F5F5F5F5F5F5F5F5F5F5F5F5F5F5F5F5F5F5F5F5F5F5F5F5F5F5F5F5F5F5F5F5F5F5F5F5F5F5F5F5F5F5F5F5F5F5F5F5F5F5F5F5F5F5F5F5F5F5F5F5F5F5F5F5F5F5F5F5F5F5F5F5F5F5F5F5F5F5F5F5F5F5F5F5F5F5E2F5E2EFE2F5E2F5F5F5F5F5F5F5F5F5
310
F5F5F5F5F5F5F5F5F5F5F5F5F5F5F5F5F5F5F5F5F5F5F5F5F5F5F5F5F5F5F5F5F5F5F5F5F5F5F5F5F5F5F5F5F5F5F5F5F5F5F5F5F5F5F5F5F5F5F5F5F5F5F5F5F5F5F5F5F5F5F5F5F5F5F5F5F5F5F5F5F5F5F5F5F5F5F5F5F5F5F5F5F5F5F5F5F5F5F5F5F5F5F5F5F5F5F5F5F5F5F5F5F5F5F5F5F5F5F5F5F5F5F5F5F5F5F5
310
F5F5F5F5F5F5F5F5F5F5F5F5F5F5F5F5F5F5F5F5F5F5F5F5F5F5F5F5F5F5F5F5F5F5F5F5F5E2F5E2EFE2F5E2F5F5F5F5F5F5F5F5F5F5F5F5F5F5F5F5F5F5F5F5F5F5F5F5F5F5F5F5F5F5F5F5F5F5F5F5F5F5F5F5F5F5F5F5F5F5F5F5F5F5F5F5F5F5F5F5F5F5F5F5F5F5F5F5F5F5F5F5F5F5F5F5F5F5F5F5F5F5F5F5F5F5F5
310
F5F5F5F5F5F5F5F5F5F5F5F5F5F5F5F5F5F5F5F5F5F5F5F5F5F5F5F5F5F5F5F5F5F5F5F5F5F5F5F5F5F5F5F5F5F5F5F5F5F5F5F5F5F5F5F5F5F5F5F5F5F5F5F5F5F5F5F5F5F5F5F5F5F5F5F5F5F5F5F5F5F5F5F5F5F5F5F5F5F5E2F5E2EFE2F5E2F5F5F5F5F5F5F5F5F5F5F5F5F5F5F5F5F5F5F5F5F5F5F5F5F5F5F5F5F5F5
310
F5F5F5F5F5F5F5F5F5F5F5F5F5F5F5F5F5F5F5F5F5F5F5F5F5F5F5F5F5F5F5F5F5F5F5F5F5F5F5F5F5F5F5F5F5F5F5F5F5F5F5F5F5F5F5F5F5F5F5F5F5F5F5F5F5F5F5F5F5F5F5F5F5F5F5F5F5F5F5F5F5F5F5F5F5F5F5F5F5F5F5F5F5F5F5F5F5F5F5F5F5F5F5F5F5F5F5F5F5F5F5F5F5F5F5F5F5F5F5F5F5F5F5F5F5F5F5
310
F5F5F5F5F5F5F5F5F5F5F5F5F5F5F5F5E2F5E2EFE2F5E2F5F5F5F5F5F5F5F5F5F5F5F5F5F5F5F5F5F5F5F5F5F5F5F5F5F5F5F5F5F5F5F5F5F5F5F5F5F5F5F5F5F5F5F5F5F5F5F5F5F5F5F5F5F5F5F5F5F5F5F5F5F5F5F5F5F5F5F5F5F5F5F5F5F5F5F5F5F5F5F5F5F5F5F5F5F5F5F5F5F5F5F5F5F5F5F5F5F5F5F5F5F5F5F5
310
F5F5F5F5F5F5F5F5F5F5F5F5F5F5F5F5F5F5F5F5F5F5F5F5F5F5F5F5F5F5F5F5F5F5F5F5F5F5F5F5F5F5F5F5F5F5F5F5F5F5F5F5F5F5F5F5F5F5F5F5F5F5F5F5F5F5F5F5F5E2F5E2EFE2F5E2F5F5F5F5F5F5F5F5F5F5F5F5F5F5F5F5F5F5F5F5F5F5F5F5F5F5F5F5F5F5F5F5F5F5F5F5F5F5F5F5F5F5F5F5F5F5F5F5F5F5F5
310
F5F5F5F5F5F5F5F5F5F5F5F5F5F5F5F5F5F5F5F5F5F5F5F5F5F5F5F5F5F5F5F5F5F5F5F5F5F5F5F5F5F5F5F5F5F5F5F5F5F5F5F5F5F5F5F5F5F5F5F5F5F5F5F5F5F5F5F5F5F5F5F5F5F5F5F5F5F5F5F5F5F5F5F5F5F5F5F5F5F5F5F5F5F5F5F5F5F5F5F5F5F5F5F5F5F5F5F5F5F5F5F5F5F5F5F5F5F5F5F5F5F5E2F5E2EFE2
310
F5E2F5F5F5F5F5F5F5F5F5F5F5F5F5F5F5F5F5F5F5F5F5F5F5F5F5F5F5F5F5F5F5F5F5F5F5F5F5F5F5F5F5F5F5F5F5F5F5F5F5F5F5F5F5F5F5F5F5F5F5F5F5F5F5F5F5F5F5F5F5F5F5F5F5F5F5F5F5F5F5F5F5F5F5F5F5F5F5F5F5F5F5F5F5F5F5F5F5F5F5F5F5F5F5F5F5F5F5F5F5F5F5F5F5F5F5F5F5F5F5F5F5F5F5F5F5
310
F5F5F5F5F5F5F5F5F5F5F5F5F5F5F5F5F5F5F5F5F5F5F5F5F5F5F5F5F5F5F5F5F5F5F5F5F5F5F5F5F5F5F5F5F5F5F5F5E2F5E2EFE2F5E2F5F5F5F5F5F5F5F5F5F5F5F5F5F5F5F5F5F5F5F5F5F5F5F5F5F5F5F5F5F5F5F5F5F5F5F5F5F5F5F5F5F5F5F5F5F5F5F5F5F5F5F5F5F5F5F5F5F5F5F5F5F5F5F5F5F5F5F5F5F5F5F5
310
F5F5F5F5F5F5F5F5F5F5F5F5F5F5F5F5F5F5F5F5F5F5F5F5F5F5F5F5F5F5F5F5F5F5F5F5F5F5F5F5F5F5F5F5F5F5F5F5F5F5F5F5F5F5F5F5F5F5F5F5F5F5F5F5F5F5F5F5F5F5F5F5F5F5F5F5F5F5F5F5F5F5F5F5F5F5F5F5F5F5F5F5F5F5F5F5F5F5F5F5F5E2F5E2EFE2F5E2F5F5F5F5F5F5F5F5F5F5F5F5F5F5F5F5F5F5F5
310
F5F5F5F5F5F5F5F5F5F5F5F5F5F5F5F5F5F5F5F5F5F5F5F5F5F5F5F5F5F5F5F5F5F5F5F5F5F5F5F5F5F5F5F5F5F5F5F5F5F5F5F5F5F5F5F5F5F5F5F5F5F5F5F5F5F5F5F5F5F5F5F5F5F5F5F5F5F5F5F5F5F5F5F5F5F5F5F5F5F5F5F5F5F5F5F5F5F5F5F5F5F5F5F5F5F5F5F5F5F5F5F5F5F5F5F5F5F5F5F5F5F5F5F5F5F5F5
310
F5F5F5F5F5F5F5F5F5F5F5F5F5F5F5F5F5F5F5F5F5F5F5F5F5F5F5E2F5E2EFE2F5F5F5F5F5F5F5F5F5F5F5F5F5F5F5F5F5F5F5F5F5F5F5F5F5F5F5F5F5F5F5F5F5F5F5F5F5F5F5F5F5F5F5F5F5F5F5F5F5F5F5F5F5F5F5F5F5F5F5F5F5F5F5F5F5F5F5F5F5F5F5F5F5F5F5F5F5F5F5F5F5F5F5F5F5F5F5F5F5F5F5F5F5F5F5
310
F5F5F5F5F5F5F5F5F5F5F5F5F5F5F5F5F5F5F5F5F5F5F5F5F5F5F5F5F5F5F5F5F5F5F5F5F5F5F5F5F5F5F5F5F5F5F5F5F5F5F5F5F5F5F5F5F5F5F5F5F5F5F5F5F5F5F5F5F5F5F5F5F5F5F5F5F5F5F5F5F5F5E2EFE2F5F5F5F5F5F5F5F5F5F5F5F5F5F5F5F5F5F5F5F5F5F5F5F5F5F5F5F5F5F5F5F5F5F5F5F5F5F5F5F5F5F5
310
F5F5F5F5F5F5F5F5F5F5F5F5F5F5F5F5F5F5F5F5F5F5F5F5F5F5F5F5F5F5F5F5F5F5F5F5F5F5F5F5F5F5F5F5F5F5F5F5F5F5F5F5F5F5F5F5F5F5F5F5F5F5F5F5F5F5F5F5F5F5F5F5F5F5F5F5F5F5F5F5F5F5F5F5F5F5F5F5F5F5F5F5F5F5F5F5F5F5F5F5F5F5F5F5F5F5F5F5F5F5F5F5F5F5F5F5F5F5F5F5F5F5F5F5F5F5F5
310
F5F5F5F5F5F5F5F5E2EFE2F5F5F5F5F5F5F5F5F5F5F5F5F5F5F5F5F5F5F5F5F5F5F5F5F5F5F5F5F5F5F5F5F5F5F5F5F5F5F5F5F5F5F5F5F5F5F5F5F5F5F5F5F5F5F5F5F5F5F5F5F5F5F5F5F5F5F5F5F5F5F5F5F5F5F5F5F5F5F5F5F5F5F5F5F5F5F5F5F5F5F5F5F5F5F5F5F5F5F5F5F5F5F5F5F5F5F5F5F5F5F5F5F5F5F5F5
310
F5F5F5F5F5F5F5F5F5F5F5F5F5F5F5F5F5F5F5F5F5F5F5F5F5F5F5F5F5F5F5F5F5F5F5F5F5F5F5F5F5F5F5F5F5F5F5F5F5F5F5F5F5F5F5F5F5F5F5F5F5E2EFE2F5F5F5F5F5F5F5F5F5F5F5F5F5F5F5F5F5F5F5F5F5F5F5F5F5F5F5F5F5F5F5F5F5F5F5F5F5F5F5F5F5F5F5F5F5F5F5F5F5F5F5F5F5F5F5F5F5F5F5F5F5F5F5
310
F5F5F5F5F5F5F5F5F5F5F5F5F5F5F5F5F5F5F5F5F5F5F5F5F5F5F5F5F5F5F5F5F5F5F5F5F5F5F5F5F5F5F5F5F5F5F5F5F5F5F5F5F5F5F5F5F5F5F5F5F5F5F5F5F5F5F5F5F5F5F5F5F5F5F5F5F5F5F5F5F5F5F5F5F5F5F5F5F5F5F5F5F5F5F5F5F5F5F5F5F5F5F5F5F5F5F5F5F5F5F5F5F5F5E2EFE2F5F5F5F5F5F5F5F5F5F5
310
F5F5F5F5F5F5F5F5F5F5F5F5F5F5F5F5F5F5F5F5F5F5F5F5F5F5F5F5F5F5F5F5F5F5F5F5F5F5F5F5F5F5F5F5F5F5F5F5F5F5F5F5F5F5F5F5F5F5F5F5F5F5F5F5F5F5F5F5F5F5F5F5F5F5F5F5F5F5F5F5F5F5F5F5F5F5F5F5F5F5F5F5F5F5F5F5F5F5F5F5F5F5F5F5F5F5F5F5F5F5F5F5F5F5F5F5F5F5F5F5F5F5F5F5F5F5F5
310
F5F5F5F5F5F5F5F5F5F5F5F5F5F5F5F5F5F5F5F5F5F5F5F5F5F5F5F5F5F5F5F5F5F5F5F5F5F5F5F5E2EFE2F5F5F5F5F5F5F5F5F5F5F5F5F5F5F5F5F5F5F5F5F5F5F5F5F5F5F5F5F5F5F5F5F5F5F5F5F5F5F5F5F5F5F5F5F5F5F5F5F5F5F5F5F5F5F5F5F5F5F5F5F5F5F5F5F5F5F5F5F5F5F5F5F5F5F5F5F5F5F5F5F5F5F5F5
310
F5F5F5F5F5F5F5F5F5F5F5F5F5F5F5F5F5F5F5F5F5F5F5F5F5F5F5F5F5F5F5F5F5F5F5F5F5F5F5F5F5F5F5F5F5F5F5F5F5F5F5F5F5F5F5F5F5F5F5F5F5F5F5F5F5F5F5F5F5F5F5F5F5F5F5F5F5F5F5F5F5F5F5F5F5F5F5F5F5F5F5F5F5E2EFE2F5F5F5F5F5F5F5F5F5F5F5F5F5F5F5F5F5F5F5F5F5F5F5F5F5F5F5F5F5F5F5
310
F5F5F5F5F5F5F5F5F5F5F5F5F5F5F5F5F5F5F5F5F5F5F5F5F5F5F5F5F5F5F5F5F5F5F5F5F5F5F5F5F5F5F5F5F5F5F5F5F5F5F5F5F5F5F5F5F5F5F5F5F5F5F5F5F5F5F5F5F5F5F5F5F5F5F5F5F5F5F5F5F5F5F5F5F5F5F5F5F5F5F5F5F5F5F5F5F5F5F5F5F5F5F5F5F5F5F5F5F5F5F5F5F5F5F5F5F5F5F5F5F5F5F5F5F5F5F5
310
F5F5F5F5F5F5F5F5F5F5F5F5F5F5F5F5F5F5F5E2EFE2F5F5F5F5F5F5F5F5F5F5F5F5F5F5F5F5F5F5F5F5F5F5F5F5F5F5F5F5F5F5F5F5F5F5F5F5F5F5F5F5F5F5F5F5F5F5F5F5F5F5F5F5F5F5F5F5F5F5F5F5F5F5F5F5F5F5F5F5F5F5F5F5F5F5F5F5F5F5F5F5F5F5F5F5F5F5F5F5F5F5F5F5F5F5F5F5F5F5F5F5F5F5F5F5F5
310
F5F5F5F5F5F5F5F5F5F5F5F5F5F5F5F5F5F5F5F5F5F5F5F5F5F5F5F5F5F5F5F5F5F5F5F5F5F5F5F5F5F5F5F5F5F5F5F5F5F5F5F5F5F5F5F5F5F5F5F5F5F5F5F5F5F5F5F5F5F5F5F5E2EFE2F5F5F5F5F5F5F5F5F5F5F5F5F5F5F5F5F5F5F5F5F5F5F5F5F5F5F5F5F5F5F5F5F5F5F5F5F5F5F5F5F5F5F5F5F5F5F5F5F5F5F5F5
310
F5F5F5F5F5F5F5F5F5F5F5F5F5F5F5F5F5F5F5F5F5F5F5F5F5F5F5F5F5F5F5F5F5F5F5F5F5F5F5F5F5F5F5F5F5F5F5F5F5F5F5F5F5F5F5F5F5F5F5F5F5F5F5F5F5F5F5F5F5F5F5F5F5F5F5F5F5F5F5F5F5F5F5F5F5F5F5F5F5F5F5F5F5F5F5F5F5F5F5F5F5F5F5F5F5F5F5F5F5F5F5F5F5F5F5F5F5F5F5F5F5F5F5F5F5E2EF
310
E2F5E2F5F5F5F5F5F5F5F5F5F5F5F5F5F5F5F5F5F5F5F5F5F5F5F5F5F5F5F5F5F5F5F5F5F5F5F5F5F5F5F5F5F5F5F5F5F5F5F5F5F5F5F5F5F5F5F5F5F5F5F5F5F5F5F5F5F5F5F5F5F5F5F5F5F5F5F5F5F5F5F5F5F5F5F5F5F5F5F5F5F5F5F5F5F5F5F5F5F5F5F5F5F5F5F5F5F5F5F5F5F5F5F5F5F5F5F5F5F5F5F5F5F5F5F5
310
F5F5F5F5F5F5F5F5F5F5F5F5F5F5F5F5F5F5F5F5F5F5F5F5F5F5F5F5F5F5F5F5F5F5F5F5F5F5F5F5F5F5F5F5F5F5F5F5F5E2F5E2EFE2F5E2F5F5F5F5F5F5F5F5F5F5F5F5F5F5F5F5F5F5F5F5F5F5F5F5F5F5F5F5F5F5F5F5F5F5F5F5F5F5F5F5F5F5F5F5F5F5F5F5F5F5F5F5F5F5F5F5F5F5F5F5F5F5F5F5F5F5F5F5F5F5F5
310
F5F5F5F5F5F5F5F5F5F5F5F5F5F5F5F5F5F5F5F5F5F5F5F5F5F5F5F5F5F5F5F5F5F5F5F5F5F5F5F5F5F5F5F5F5F5F5F5F5F5F5F5F5F5F5F5F5F5F5F5F5F5F5F5F5F5F5F5F5F5F5F5F5F5F5F5F5F5F5F5F5F5F5F5F5F5F5F5F5F5F5F5F5F5F5F5F5F5F5F5F5F5E2F5E2EFE2F5E2F5F5F5F5F5F5F5F5F5F5F5F5F5F5F5F5F5F5
310
F5F5F5F5F5F5F5F5F5F5F5F5F5F5F5F5F5F5F5F5F5F5F5F5F5F5F5F5F5F5F5F5F5F5F5F5F5F5F5F5F5F5F5F5F5F5F5F5F5F5F5F5F5F5F5F5F5F5F5F5F5F5F5F5F5F5F5F5F5F5F5F5F5F5F5F5F5F5F5F5F5F5F5F5F5F5F5F5F5F5F5F5F5F5F5F5F5F5F5F5F5F5F5F5F5F5F5F5F5F5F5F5F5F5F5F5F5F5F5F5F5F5F5F5F5F5F5
310
F5F5F5F5F5F5F5F5F5F5F5F5F5F5F5F5F5F5F5F5F5F5F5F5F5F5F5F5E2F5E2EFE2F5E2F5F5F5F5F5F5F5F5F5F5F5F5F5F5F5F5F5F5F5F5F5F5F5F5F5F5F5F5F5F5F5F5F5F5F5F5F5F5F5F5F5F5F5F5F5F5F5F5F5F5F5F5F5F5F5F5F5F5F5F5F5F5F5F5F5F5F5F5F5F5F5F5F5F5F5F5F5F5F5F5F5F5F5F5F5F5F5F5F5F5F5F5
310
F5F5F5F5F5F5F5F5F5F5F5F5F5F5F5F5F5F5F5F5F5F5F5F5F5F5F5F5F5F5F5F5F5F5F5F5F5F5F5F5F5F5F5F5F5F5F5F5F5F5F5F5F5F5F5F5F5F5F5F5F5F5F5F5F5F5F5F5F5F5F5F5F5F5F5F5F5F5F5F5F5E2F5E2EFE2F5E2F5F5F5F5F5F5F5F5F5F5F5F5F5F5F5F5F5F5F5F5F5F5F5F5F5F5F5F5F5F5F5F5F5F5F5F5F5F5F5
310
F5F5F5F5F5F5F5F5F5F5F5F5F5F5F5F5F5F5F5F5F5F5F5F5F5F5F5F5F5F5F5F5F5F5F5F5F5F5F5F5F5F5F5F5F5F5F5F5F5F5F5F5F5F5F5F5F5F5F5F5F5F5F5F5F5F5F5F5F5F5F5F5F5F5F5F5F5F5F5F5F5F5F5F5F5F5F5F5F5F5F5F5F5F5F5F5F5F5F5F5F5F5F5F5F5F5F5F5F5F5F5F5F5F5F5F5F5F5F5F5F5F5F5F5F5F5F5
310
F5F5F5F5F5F5F5E2F5E2EFE2F5E2F5F5F5F5F5F5F5F5F5F5F5F5F5F5F5F5F5F5F5F5F5F5F5F5F5F5F5F5F5F5F5F5F5F5F5F5F5F5F5F5F5F5F5F5F5F5F5F5F5F5F5F5F5F5F5F5F5F5F5F5F5F5F5F5F5F5F5F5F5F5F5F5F5F5F5F5F5F5F5F5F5F5F5F5F5F5F5F5F5F5F5F5F5F5F5F5F5F5F5F5F5F5F5F5F5F5F5F5F5F5F5F5F5
310
F5F5F5F5F5F5F5F5F5F5F5F5F5F5F5F5F5F5F5F5F5F5F5F5F5F5F5F5F5F5F5F5F5F5F5F5F5F5F5F5F5F5F5F5F5F5F5F5F5F5F5F5F5F5F5F5F5F5F5F5E2F5E2EFE2F5E2F5F5F5F5F5F5F5F5F5F5F5F5F5F5F5F5F5F5F5F5F5F5F5F5F5F5F5F5F5F5F5F5F5F5F5F5F5F5F5F5F5F5F5F5F5F5F5F5F5F5F5F5F5F5F5F5F5F5F5F5
310
F5F5F5F5F5F5F5F5F5F5F5F5F5F5F5F5F5F5F5F5F5F5F5F5F5F5F5F5F5F5F5F5F5F5F5F5F5F5F5F5F5F5F5F5F5F5F5F5F5F5F5F5F5F5F5F5F5F5F5F5F5F5F5F5F5F5F5F5F5F5F5F5F5F5F5F5F5F5F5F5F5F5F5F5F5F5F5F5F5F5F5F5F5F5F5F5F5F5F5F5F5F5F5F5F5F5F5F5F5F5F5F5F5E2F5E2EFE2F5E2F5F5F5F5F5F5F5
310
F5F5F5F5F5F5F5F5F5F5F5F5F5F5F5F5F5F5F5F5F5F5F5F5F5F5F5F5F5F5F5F5F5F5F5F5F5F5F5F5F5F5F5F5F5F5F5F5F5F5F5F5F5F5F5F5F5F5F5F5F5F5F5F5F5F5F5F5F5F5F5F5F5F5F5F5F5F5F5F5F5F5F5F5F5F5F5F5F5F5F5F5F5F5F5F5F5F5F5F5F5F5F5F5F5F5F5F5F5F5F5F5F5F5F5F5F5F5F5F5F5F5F5F5F5F5F5
310
F5F5F5F5F5F5F5F5F5F5F5F5F5F5F5F5F5F5F5F5F5F5F5F5F5F5F5F5F5F5F5F5F5F5F5F5F5F5F5E2F5E2EFE2F5E2F5F5F5F5F5F5F5F5F5F5F5F5F5F5F5F5F5F5F5F5F5F5F5F5F5F5F5F5F5F5F5F5F5F5F5F5F5F5F5F5F5F5F5F5F5F5F5F5F5F5F5F5F5F5F5F5F5F5F5F5F5F5F5F5F5F5F5F5F5F5F5F5F5F5F5F5F5F5F5F5F5
310
F5F5F5F5F5F5F5F5F5F5F5F5F5F5F5F5F5F5F5F5F5F5F5F5F5F5F5F5F5F5F5F5F5F5F5F5F5F5F5F5F5F5F5F5F5F5F5F5F5F5F5F5F5F5F5F5F5F5F5F5F5F5F5F5F5F5F5F5F5F5F5F5F5F5F5F5F5F5F5F5F5F5F5F5F5F5F5F5F5F5F5F5E2F5E2EFE2F5E2F5F5F5F5F5F5F5F5F5F5F5F5F5F5F5F5F5F5F5F5F5F5F5F5F5F5F5F5
310
F5F5F5F5F5F5F5F5F5F5F5F5F5F5F5F5F5F5F5F5F5F5F5F5F5F5F5F5F5F5F5F5F5F5F5F5F5F5F5F5F5F5F5F5F5F5F5F5F5F5F5F5F5F5F5F5F5F5F5F5F5F5F5F5F5F5F5F5F5F5F5F5F5F5F5F5F5F5F5F5F5F5F5F5F5F5F5F5F5F5F5F5F5F5F5F5F5F5F5F5F5F5F5F5F5F5F5F5F5F5F5F5F5F5F5F5F5F5F5F5F5F5F5F5F5F5F5
310
F5F5F5F5F5F5F5F5F5F5F5F5F5F5F5F5F5F5E2F5E2EFE2F5E2F5F5F5F5F5F5F5F5F5F5F5F5F5F5F5F5F5F5F5F5F5F5F5F5F5F5F5F5F5F5F5F5F5F5F5F5F5F5F5F5F5F5F5F5F5F5F5F5F5F5F5F5F5F5F5F5F5F5F5F5F5F5F5F5F5F5F5F5F5F5F5F5F5F5F5F5F5F5F5F5F5F5F5F5F5F5F5F5F5F5F5F5F5F5F5F5F5F5F5F5F5F5
310
F5F5F5F5F5F5F5F5F5F5F5F5F5F5F5F5F5F5F5F5F5F5F5F5F5F5F5F5F5F5F5F5F5F5F5F5F5F5F5F5F5F5F5F5F5F5F5F5F5F5F5F5F5F5F5F5F5F5F5F5F5F5F5F5F5F5F5F5F5F5F5E2F5E2EFE2F5E2F5F5F5F5F5F5F5F5F5F5F5F5F5F5F5F5F5F5F5F5F5F5F5F5F5F5F5F5F5F5F5F5F5F5F5F5F5F5F5F5F5F5F5F5F5F5F5F5F5
310
F5F5F5F5F5F5F5F5F5F5F5F5F5F5F5F5F5F5F5F5F5F5F5F5F5F5F5F5F5F5F5F5F5F5F5F5F5F5F5F5F5F5F5F5F5F5F5F5F5F5F5F5F5F5F5F5F5F5F5F5F5F5F5F5F5F5F5F5F5F5F5F5F5F5F5F5F5F5F5F5F5F5F5F5F5F5F5F5F5F5F5F5F5F5F5F5F5F5F5F5F5F5F5F5F5F5F5F5F5F5F5F5F5F5F5F5F5F5F5F5F5F5F5F5E2F5E2
310
EFE2F5E2F5F5F5F5F5F5F5F5F5F5F5F5F5F5F5F5F5F5F5F5F5F5F5F5F5F5F5F5F5F5F5F5F5F5F5F5F5F5F5F5F5F5F5F5F5F5F5F5F5F5F5F5F5F5F5F5F5F5F5F5F5F5F5F5F5F5F5F5F5F5F5F5F5F5F5F5F5F5F5F5F5F5F5F5F5F5F5F5F5F5F5F5F5F5F5F5F5F5F5F5F5F5F5F5F5F5F5F5F5F5F5F5F5F5F5F5F5F5F5F5F5F5F5
310
F5F5F5F5F5F5F5F5F5F5F5F5F5F5F5F5F5F5F5F5F5F5F5F5F5F5F5F5F5F5F5F5F5F5F5F5F5F5F5F5F5F5F5F5F5F5F5F5F5F5E2F5E2EFE2F5E2F5F5F5F5F5F5F5F5F5F5F5F5F5F5F5F5F5F5F5F5F5F5F5F5F5F5F5F5F5F5F5F5F5F5F5F5F5F5F5F5F5F5F5F5F5F5F5F5F5F5F5F5F5F5F5F5F5F5F5F5F5F5F5F5F5F5F5F5F5F5
310
F5F5F5F5F5F5F5F5F5F5F5F5F5F5F5F5F5F5F5F5F5F5F5F5F5F5F5F5F5F5F5F5F5F5F5F5F5F5F5F5F5F5F5F5F5F5F5F5F5F5F5F5F5F5F5F5F5F5F5F5F5F5F5F5F5F5F5F5F5F5F5F5F5F5F5F5F5F5F5F5F5F5F5F5F5F5F5F5F5F5F5F5F5F5F5F5F5F5F5F5F5F5F5E2F5E2EFE2F5E2F5F5F5F5F5F5F5F5F5F5F5F5F5F5F5F5F5
310
F5F5F5F5F5F5F5F5F5F5F5F5F5F5F5F5F5F5F5F5F5F5F5F5F5F5F5F5F5F5F5F5F5F5F5F5F5F5F5F5F5F5F5F5F5F5F5F5F5F5F5F5F5F5F5F5F5F5F5F5F5F5F5F5F5F5F5F5F5F5F5F5F5F5F5F5F5F5F5F5F5F5F5F5F5F5F5F5F5F5F5F5F5F5F5F5F5F5F5F5F5F5F5F5F5F5F5F5F5F5F5F5F5F5F5F5F5F5F5F5F5F5F5F5F5F5F5
310
F5F5F5F5F5F5F5F5F5F5F5F5F5F5F5F5F5F5F5F5F5F5F5F5F5F5F5F5F5E2F5E2EFE2F5E2F5F5F5F5F5F5F5F5F5F5F5F5F5F5F5F5F5F5F5F5F5F5F5F5F5F5F5F5F5F5F5F5F5F5F5F5F5F5F5F5F5F5F5F5F5F5F5F5F5F5F5F5F5F5F5F5F5F5F5F5F5F5F5F5F5F5F5F5F5F5F5F5F5F5F5F5F5F5F5F5F5F5F5F5F5F5F5F5F5F5F5
310
F5F5F5F5F5F5F5F5F5F5F5F5F5F5F5F5F5F5F5F5F5F5F5F5F5F5F5F5F5F5F5F5F5F5F5F5F5F5F5F5F5F5F5F5F5F5F5F5F5F5F5F5F5F5F5F5F5F5F5F5F5F5F5F5F5F5F5F5F5F5F5F5F5F5F5F5F5F5F5F5F5F5E2F5E2EFE2F5E2F5F5F5F5F5F5F5F5F5F5F5F5F5F5F5F5F5F5F5F5F5F5F5F5F5F5F5F5F5F5F5F5F5F5F5F5F5F5
310
F5F5F5F5F5F5F5F5F5F5F5F5F5F5F5F5F5F5F5F5F5F5F5F5F5F5F5F5F5F5F5F5F5F5F5F5F5F5F5F5F5F5F5F5F5F5F5F5F5F5F5F5F5F5F5F5F5F5F5F5F5F5F5F5F5F5F5F5F5F5F5F5F5F5F5F5F5F5F5F5F5F5F5F5F5F5F5F5F5F5F5F5F5F5F5F5F5F5F5F5F5F5F5F5F5F5F5F5F5F5F5F5F5F5F5F5F5F5F5F5F5F5F5F5F5F5F5
310
F5F5F5F5F5F5F5F5E2F5E2EFE2F5F5F5F5F5F5F5F5F5F5F5F5F5F5F5F5F5F5F5F5F5F5F5F5F5F5F5F5F5F5F5F5F5F5F5F5F5F5F5F5F5F5F5F5F5F5F5F5F5F5F5F5F5F5F5F5F5F5F5F5F5F5F5F5F5F5F5F5F5F5F5F5F5F5F5F5F5F5F5F5F5F5F5F5F5F5F5F5F5F5F5F5F5F5F5F5F5F5F5F5F5F5F5F5F5F5F5F5F5F5F5F5F5F5
310
F5F5F5F5F5F5F5F5F5F5F5F5F5F5F5F5F5F5F5F5F5F5F5F5F5F5F5F5F5F5F5F5F5F5F5F5F5F5F5F5F5F5F5F5F5F5F5F5F5F5F5F5F5F5F5F5F5F5F5F5F5F5F5E2EFE2F5F5F5F5F5F5F5F5F5F5F5F5F5F5F5F5F5F5F5F5F5F5F5F5F5F5F5F5F5F5F5F5F5F5F5F5F5F5F5F5F5F5F5F5F5F5F5F5F5F5F5F5F5F5F5F5F5F5F5F5F5
310
F5F5F5F5F5F5F5F5F5F5F5F5F5F5F5F5F5F5F5F5F5F5F5F5F5F5F5F5F5F5F5F5F5F5F5F5F5F5F5F5F5F5F5F5F5F5F5F5F5F5F5F5F5F5F5F5F5F5F5F5F5F5F5F5F5F5F5F5F5F5F5F5F5F5F5F5F5F5F5F5F5F5F5F5F5F5F5F5F5F5F5F5F5F5F5F5F5F5F5F5F5F5F5F5F5F5F5F5F5F5F5F5F5F5F5F5E2EFE2F5F5F5F5F5F5F5F5
310
F5F5F5F5F5F5F5F5F5F5F5F5F5F5F5F5F5F5F5F5F5F5F5F5F5F5F5F5F5F5F5F5F5F5F5F5F5F5F5F5F5F5F5F5F5F5F5F5F5F5F5F5F5F5F5F5F5F5F5F5F5F5F5F5F5F5F5F5F5F5F5F5F5F5F5F5F5F5F5F5F5F5F5F5F5F5F5F5F5F5F5F5F5F5F5F5F5F5F5F5F5F5F5F5F5F5F5F5F5F5F5F5F5F5F5F5F5F5F5F5F5F5F5F5F5F5F5
310
F5F5F5F5F5F5F5F5F5F5F5F5F5F5F5F5F5F5F5F5F5F5F5F5F5F5F5F5F5F5F5F5F5F5F5F5F5F5F5F5F5F5E2EFE2F5F5F5F5F5F5F5F5F5F5F5F5F5F5F5F5F5F5F5F5F5F5F5F5F5F5F5F5F5F5F5F5F5F5F5F5F5F5F5F5F5F5F5F5F5F5F5F5F5F5F5F5F5F5F5F5F5F5F5F5F5F5F5F5F5F5F5F5F5F5F5F5F5F5F5F5F5F5F5F5F5F5
310
F5F5F5F5F5F5F5F5F5F5F5F5F5F5F5F5F5F5F5F5F5F5F5F5F5F5F5F5F5F5F5F5F5F5F5F5F5F5F5F5F5F5F5F5F5F5F5F5F5F5F5F5F5F5F5F5F5F5F5F5F5F5F5F5F5F5F5F5F5F5F5F5F5F5F5F5F5F5F5F5F5F5F5F5F5F5F5F5F5F5F5F5F5F5F5E2EFE2F5F5F5F5F5F5F5F5F5F5F5F5F5F5F5F5F5F5F5F5F5F5F5F5F5F5F5F5F5
310
F5F5F5F5F5F5F5F5F5F5F5F5F5F5F5F5F5F5F5F5F5F5F5F5F5F5F5F5F5F5F5F5F5F5F5F5F5F5F5F5F5F5F5F5F5F5F5F5F5F5F5F5F5F5F5F5F5F5F5F5F5F5F5F5F5F5F5F5F5F5F5F5F5F5F5F5F5F5F5F5F5F5F5F5F5F5F5F5F5F5F5F5F5F5F5F5F5F5F5F5F5F5F5F5F5F5F5F5F5F5F5F5F5F5F5F5F5F5F5F5F5F5F5F5F5F5F5
310
F5F5F5F5F5F5F5F5F5F5F5F5F5F5F5F5F5F5F5F5F5E2EFE2F5F5F5F5F5F5F5F5F5F5F5F5F5F5F5F5F5F5F5F5F5F5F5F5F5F5F5F5F5F5F5F5F5F5F5F5F5F5F5F5F5F5F5F5F5F5F5F5F5F5F5F5F5F5F5F5F5F5F5F5F5F5F5F5F5F5F5F5F5F5F5F5F5F5F5F5F5F5F5F5F5F5F5F5F5F5F5F5F5F5F5F5F5F5F5F5F5F5F5F5F5F5F5
310
F5F5F5F5F5F5F5F5F5F5F5F5F5F5F5F5F5F5F5F5F5F5F5F5F5F5F5F5F5F5F5F5F5F5F5F5F5F5F5F5F5F5F5F5F5F5F5F5F5F5F5F5F5F5F5F5F5F5F5F5F5F5F5F5F5F5F5F5F5F5F5F5F5F5E2EFE2F5F5F5F5F5F5F5F5F5F5F5F5F5F5F5F5F5F5F5F5F5F5F5F5F5F5F5F5F5F5F5F5F5F5F5F5F5F5F5F5F5F5F5F5F5F5F5F5F5F5
310
F5F5F5F5F5F5F5F5F5F5F5F5F5F5F5F5F5F5F5F5F5F5F5F5F5F5F5F5F5F5F5F5F5F5F5F5F5F5F5F5F5F5F5F5F5F5F5F5F5F5F5F5F5F5F5F5F5F5F5F5F5F5F5F5F5F5F5F5F5F5F5F5F5F5F5F5F5F5F5F5F5F5F5F5F5F5F5F5F5F5F5F5F5F5F5F5F5F5F5F5F5F5F5F5F5F5F5F5F5F5F5F5F5F5F5F5F5F5F5F5F5F5F5F5F5F5F5
310
E2EFE2F5F5F5F5F5F5F5F5F5F5F5F5F5F5F5F5F5F5F5F5F5F5F5F5F5F5F5F5F5F5F5F5F5F5F5F5F5F5F5F5F5F5F5F5F5F5F5F5F5F5F5F5F5F5F5F5F5F5F5F5F5F5F5F5F5F5F5F5F5F5F5F5F5F5F5F5F5F5F5F5F5F5F5F5F5F5F5F5F5F5F5F5F5F5F5F5F5F5F5F5F5F5F5F5F5F5F5F5F5F5F5F5F5F5F5F5F5F5F5F5F5F5F5F5
310
F5F5F5F5F5F5F5F5F5F5F5F5F5F5F5F5F5F5F5F5F5F5F5F5F5F5F5F5F5F5F5F5F5F5F5F5F5F5F5F5F5F5F5F5F5F5F5F5F5F5F5F5F5E2EFE2F5F5F5F5F5F5F5F5F5F5F5F5F5F5F5F5F5F5F5F5F5F5F5F5F5F5F5F5F5F5F5F5F5F5F5F5F5F5F5F5F5F5F5F5F5F5F5F5F5F5F5F5F5F5F5F5F5F5F5F5F5F5F5F5F5F5F5F5F5F5F5
310
F5F5F5F5F5F5F5F5F5F5F5F5F5F5F5F5F5F5F5F5F5F5F5F5F5F5F5F5F5F5F5F5F5F5F5F5F5F5F5F5F5F5F5F5F5F5F5F5F5F5F5F5F5F5F5F5F5F5F5F5F5F5F5F5F5F5F5F5F5F5F5F5F5F5F5F5F5F5F5F5F5F5F5F5F5F5F5F5F5F5F5F5F5F5F5F5F5F5F5F5F5F5F5F5F5F5E2EFE2F5F5F5F5F5F5F5F5F5F5F5F5F5F5F5F5F5F5
310
F5F5F5F5F5F5F5F5F5F5F5F5F5F5F5F5F5F5F5F5F5F5F5F5F5F5F5F5F5F5F5F5F5F5F5F5F5F5F5F5F5F5F5F5F5F5F5F5F5F5F5F5F5F5F5F5F5F5F5F5F5F5F5F5F5F5F5F5F5F5F5F5F5F5F5F5F5F5F5F5F5F5F5F5F5F5F5F5F5F5F5F5F5F5F5F5F5F5F5F5F5F5F5F5F5F5F5F5F5F5F5F5F5F5F5F5F5F5F5F5F5F5F5F5F5F5F5
310
F5F5F5F5F5F5F5F5F5F5F5F5F5F5F5F5F5F5F5F5F5F5F5F5F5F5F5F5F5F5F5F5E2EFE2F5E2F5F5F5F5F5F5F5F5F5F5F5F5F5F5F5F5F5F5F5F5F5F5F5F5F5F5F5F5F5F5F5F5F5F5F5F5F5F5F5F5F5F5F5F5F5F5F5F5F5F5F5F5F5F5F5F5F5F5F5F5F5F5F5F5F5F5F5F5F5F5F5F5F5F5F5F5F5F5F5F5F5F5F5F5F5F5F5F5F5F5
310
F5F5F5F5F5F5F5F5F5F5F5F5F5F5F5F5F5F5F5F5F5F5F5F5F5F5F5F5F5F5F5F5F5F5F5F5F5F5F5F5F5F5F5F5F5F5F5F5F5F5F5F5F5F5F5F5F5F5F5F5F5F5F5F5F5F5F5F5F5F5F5F5F5F5F5F5F5F5F5F5F5F5F5E2F5E2EFE2F5E2F5F5F5F5F5F5F5F5F5F5F5F5F5F5F5F5F5F5F5F5F5F5F5F5F5F5F5F5F5F5F5F5F5F5F5F5F5
310
F5F5F5F5F5F5F5F5F5F5F5F5F5F5F5F5F5F5F5F5F5F5F5F5F5F5F5F5F5F5F5F5F5F5F5F5F5F5F5F5F5F5F5F5F5F5F5F5F5F5F5F5F5F5F5F5F5F5F5F5F5F5F5F5F5F5F5F5F5F5F5F5F5F5F5F5F5F5F5F5F5F5F5F5F5F5F5F5F5F5F5F5F5F5F5F5F5F5F5F5F5F5F5F5F5F5F5F5F5F5F5F5F5F5F5F5F5F5F5F5F5F5F5F5F5F5F5
310
F5F5F5F5F5F5F5F5F5E2F5E2EFE2F5E2F5F5F5F5F5F5F5F5F5F5F5F5F5F5F5F5F5F5F5F5F5F5F5F5F5F5F5F5F5F5F5F5F5F5F5F5F5F5F5F5F5F5F5F5F5F5F5F5F5F5F5F5F5F5F5F5F5F5F5F5F5F5F5F5F5F5F5F5F5F5F5F5F5F5F5F5F5F5F5F5F5F5F5F5F5F5F5F5F5F5F5F5F5F5F5F5F5F5F5F5F5F5F5F5F5F5F5F5F5F5F5
310
F5F5F5F5F5F5F5F5F5F5F5F5F5F5F5F5F5F5F5F5F5F5F5F5F5F5F5F5F5F5F5F5F5F5F5F5F5F5F5F5F5F5F5F5F5F5F5F5F5F5F5F5F5F5F5F5F5F5F5F5F5F5E2F5E2EFE2F5E2F5F5F5F5F5F5F5F5F5F5F5F5F5F5F5F5F5F5F5F5F5F5F5F5F5F5F5F5F5F5F5F5F5F5F5F5F5F5F5F5F5F5F5F5F5F5F5F5F5F5F5F5F5F5F5F5F5F5
310
F5F5F5F5F5F5F5F5F5F5F5F5F5F5F5F5F5F5F5F5F5F5F5F5F5F5F5F5F5F5F5F5F5F5F5F5F5F5F5F5F5F5F5F5F5F5F5F5F5F5F5F5F5F5F5F5F5F5F5F5F5F5F5F5F5F5F5F5F5F5F5F5F5F5F5F5F5F5F5F5F5F5F5F5F5F5F5F5F5F5F5F5F5F5F5F5F5F5F5F5F5F5F5F5F5F5F5F5F5F5F5F5F5F5F5E2F5E2EFE2F5E2F5F5F5F5F5
310
F5F5F5F5F5F5F5F5F5F5F5F5F5F5F5F5F5F5F5F5F5F5F5F5F5F5F5F5F5F5F5F5F5F5F5F5F5F5F5F5F5F5F5F5F5F5F5F5F5F5F5F5F5F5F5F5F5F5F5F5F5F5F5F5F5F5F5F5F5F5F5F5F5F5F5F5F5F5F5F5F5F5F5F5F5F5F5F5F5F5F5F5F5F5F5F5F5F5F5F5F5F5F5F5F5F5F5F5F5F5F5F5F5F5F5F5F5F5F5F5F5F5F5F5F5F5F5
310
F5F5F5F5F5F5F5F5F5F5F5F5F5F5F5F5F5F5F5F5F5F5F5F5F5F5F5F5F5F5F5F5F5F5F5F5F5F5F5F5F5E2F5E2EFE2F5E2F5F5F5F5F5F5F5F5F5F5F5F5F5F5F5F5F5F5F5F5F5F5F5F5F5F5F5F5F5F5F5F5F5F5F5F5F5F5F5F5F5F5F5F5F5F5F5F5F5F5F5F5F5F5F5F5F5F5F5F5F5F5F5F5F5F5F5F5F5F5F5F5F5F5F5F5F5F5F5
310
F5F5F5F5F5F5F5F5F5F5F5F5F5F5F5F5F5F5F5F5F5F5F5F5F5F5F5F5F5F5F5F5F5F5F5F5F5F5F5F5F5F5F5F5F5F5F5F5F5F5F5F5F5F5F5F5F5F5F5F5F5F5F5F5F5F5F5F5F5F5F5F5F5F5F5F5F5F5F5F5F5F5F5F5F5F5F5F5F5F5F5F5F5F5E2F5E2EFE2F5E2F5F5F5F5F5F5F5F5F5F5F5F5F5F5F5F5F5F5F5F5F5F5F5F5F5F5
310
F5F5F5F5F5F5F5F5F5F5F5F5F5F5F5F5F5F5F5F5F5F5F5F5F5F5F5F5F5F5F5F5F5F5F5F5F5F5F5F5F5F5F5F5F5F5F5F5F5F5F5F5F5F5F5F5F5F5F5F5F5F5F5F5F5F5F5F5F5F5F5F5F5F5F5F5F5F5F5F5F5F5F5F5F5F5F5F5F5F5F5F5F5F5F5F5F5F5F5F5F5F5F5F5F5F5F5F5F5F5F5F5F5F5F5F5F5F5F5F5F5F5F5F5F5F5F5
310
F5F5F5F5F5F5F5F5F5F5F5F5F5F5F5F5F5F5F5F5E2F5E2EFE2F5E2F5F5F5F5F5F5F5F5F5F5F5F5F5F5F5F5F5F5F5F5F5F5F5F5F5F5F5F5F5F5F5F5F5F5F5F5F5F5F5F5F5F5F5F5F5F5F5F5F5F5F5F5F5F5F5F5F5F5F5F5F5F5F5F5F5F5F5F5F5F5F5F5F5F5F5F5F5F5F5F5F5F5F5F5F5F5F5F5F5F5F5F5F5F5F5F5F5F5F5F5
310
F5F5F5F5F5F5F5F5F5F5F5F5F5F5F5F5F5F5F5F5F5F5F5F5F5F5F5F5F5F5F5F5F5F5F5F5F5F5F5F5F5F5F5F5F5F5F5F5F5F5F5F5F5F5F5F5F5F5F5F5F5F5F5F5F5F5F5F5F5F5F5F5F5E2F5E2EFE2F5E2F5F5F5F5F5F5F5F5F5F5F5F5F5F5F5F5F5F5F5F5F5F5F5F5F5F5F5F5F5F5F5F5F5F5F5F5F5F5F5F5F5F5F5F5F5F5F5
310
F5F5F5F5F5F5F5F5F5F5F5F5F5F5F5F5F5F5F5F5F5F5F5F5F5F5F5F5F5F5F5F5F5F5F5F5F5F5F5F5F5F5F5F5F5F5F5F5F5F5F5F5F5F5F5F5F5F5F5F5F5F5F5F5F5F5F5F5F5F5F5F5F5F5F5F5F5F5F5F5F5F5F5F5F5F5F5F5F5F5F5F5F5F5F5F5F5F5F5F5F5F5F5F5F5F5F5F5F5F5F5F5F5F5F5F5F5F5F5F5F5F5F5F5F5F5E2
310
F5E2EFE2F5E2F5F5F5F5F5F5F5F5F5F5F5F5F5F5F5F5F5F5F5F5F5F5F5F5F5F5F5F5F5F5F5F5F5F5F5F5F5F5F5F5F5F5F5F5F5F5F5F5F5F5F5F5F5F5F5F5F5F5F5F5F5F5F5F5F5F5F5F5F5F5F5F5F5F5F5F5F5F5F5F5F5F5F5F5F5F5F5F5F5F5F5F5F5F5F5F5F5F5F5F5F5F5F5F5F5F5F5F5F5F5F5F5F5F5F5F5F5F5F5F5F5
310
F5F5F5F5F5F5F5F5F5F5F5F5F5F5F5F5F5F5F5F5F5F5F5F5F5F5F5F5F5F5F5F5F5F5F5F5F5F5F5F5F5F5F5F5F5F5F5F5F5F5F5F5E2F5E2EFE2F5E2F5F5F5F5F5F5F5F5F5F5F5F5F5F5F5F5F5F5F5F5F5F5F5F5F5F5F5F5F5F5F5F5F5F5F5F5F5F5F5F5F5F5F5F5F5F5F5F5F5F5F5F5F5F5F5F5F5F5F5F5F5F5F5F5F5F5F5F5
310
F5F5F5F5F5F5F5F5F5F5F5F5F5F5F5F5F5F5F5F5F5F5F5F5F5F5F5F5F5F5F5F5F5F5F5F5F5F5F5F5F5F5F5F5F5F5F5F5F5F5F5F5F5F5F5F5F5F5F5F5F5F5F5F5F5F5F5F5F5F5F5F5F5F5F5F5F5F5F5F5F5F5F5F5F5F5F5F5F5F5F5F5F5F5F5F5F5F5F5F5F5F5F5F5F5E2F5E2EFE2F5E2F5F5F5F5F5F5F5F5F5F5F5F5F5F5F5
310
F5F5F5F5F5F5F5F5F5F5F5F5F5F5F5F5F5F5F5F5F5F5F5F5F5F5F5F5F5F5F5F5F5F5F5F5F5F5F5F5F5F5F5F5F5F5F5F5F5F5F5F5F5F5F5F5F5F5F5F5F5F5F5F5F5F5F5F5F5F5F5F5F5F5F5F5F5F5F5F5F5F5F5F5F5F5F5F5F5F5F5F5F5F5F5F5F5F5F5F5F5F5F5F5F5F5F5F5F5F5F5F5F5F5F5F5F5F5F5F5F5F5F5F5F5F5F5
310
F5F5F5F5F5F5F5F5F5F5F5F5F5F5F5F5F5F5F5F5F5F5F5F5F5F5F5F5F5F5F5E2F5E2EFE2F5E2F5F5F5F5F5F5F5F5F5F5F5F5F5F5F5F5F5F5F5F5F5F5F5F5F5F5F5F5F5F5F5F5F5F5F5F5F5F5F5F5F5F5F5F5F5F5F5F5F5F5F5F5F5F5F5F5F5F5F5F5F5F5F5F5F5F5F5F5F5F5F5F5F5F5F5F5F5F5F5F5F5F5F5F5F5F5F5F5F5
310
F5F5F5F5F5F5F5F5F5F5F5F5F5F5F5F5F5F5F5F5F5F5F5F5F5F5F5F5F5F5F5F5F5F5F5F5F5F5F5F5F5F5F5F5F5F5F5F5F5F5F5F5F5F5F5F5F5F5F5F5F5F5F5F5F5F5F5F5F5F5F5F5F5F5F5F5F5F5F5F5F5F5F5F5E2F5E2EFE2F5E2F5F5F5F5F5F5F5F5F5F5F5F5F5F5F5F5F5F5F5F5F5F5F5F5F5F5F5F5F5F5F5F5F5F5F5F5
310
F5F5F5F5F5F5F5F5F5F5F5F5F5F5F5F5F5F5F5F5F5F5F5F5F5F5F5F5F5F5F5F5F5F5F5F5F5F5F5F5F5F5F5F5F5F5F5F5F5F5F5F5F5F5F5F5F5F5F5F5F5F5F5F5F5F5F5F5F5F5F5F5F5F5F5F5F5F5F5F5F5F5F5F5F5F5F5F5F5F5F5F5F5F5F5F5F5F5F5F5F5F5F5F5F5F5F5F5F5F5F5F5F5F5F5F5F5F5F5F5F5F5F5F5F5F5F5
310
F5F5F5F5F5F5F5F5F5F5E2F5E2EFE2F5E2F5F5F5F5F5F5F5F5F5F5F5F5F5F5F5F5F5F5F5F5F5F5F5F5F5F5F5F5F5F5F5F5F5F5F5F5F5F5F5F5F5F5F5F5F5F5F5F5F5F5F5F5F5F5F5F5F5F5F5F5F5F5F5F5F5F5F5F5F5F5F5F5F5F5F5F5F5F5F5F5F5F5F5F5F5F5F5F5F5F5F5F5F5F5F5F5F5F5F5F5F5F5F5F5F5F5F5F5F5F5
310
F5F5F5F5F5F5F5F5F5F5F5F5F5F5F5F5F5F5F5F5F5F5F5F5F5F5F5F5F5F5F5F5F5F5F5F5F5F5F5F5F5F5F5F5F5F5F5F5F5F5F5F5F5F5F5F5F5F5F5F5F5F5F5E2F5E2EFE2F5E2F5F5F5F5F5F5F5F5F5F5F5F5F5F5F5F5F5F5F5F5F5F5F5F5F5F5F5F5F5F5F5F5F5F5F5F5F5F5F5F5F5F5F5F5F5F5F5F5F5F5F5F5F5F5F5F5F5
310
F5F5F5F5F5F5F5F5F5F5F5F5F5F5F5F5F5F5F5F5F5F5F5F5F5F5F5F5F5F5F5F5F5F5F5F5F5F5F5F5F5F5F5F5F5F5F5F5F5F5F5F5F5F5F5F5F5F5F5F5F5F5F5F5F5F5F5F5F5F5F5F5F5F5F5F5F5F5F5F5F5F5F5F5F5F5F5F5F5F5F5F5F5F5F5F5F5F5F5F5F5F5F5F5F5F5F5F5F5F5F5F5F5F5F5F5E2F5E2EFE2F5E2F5F5F5F5
310
F5F5F5F5F5F5F5F5F5F5F5F5F5F5F5F5F5F5F5F5F5F5F5F5F5F5F5F5F5F5F5F5F5F5F5F5F5F5F5F5F5F5F5F5F5F5F5F5F5F5F5F5F5F5F5F5F5F5F5F5F5F5F5F5F5F5F5F5F5F5F5F5F5F5F5F5F5F5F5F5F5F5F5F5F5F5F5F5F5F5F5F5F5F5F5F5F5F5F5F5F5F5F5F5F5F5F5F5F5F5F5F5F5F5F5F5F5F5F5F5F5F5F5F5F5F5F5
310
F5F5F5F5F5F5F5F5F5F5F5F5F5F5F5F5F5F5F5F5F5F5F5F5F5F5F5F5F5F5F5F5F5F5F5F5F5F5F5F5F5F5E2F5E2EFE2F5F5F5F5F5F5F5F5F5F5F5F5F5F5F5F5F5F5F5F5F5F5F5F5F5F5F5F5F5F5F5F5F5F5F5F5F5F5F5F5F5F5F5F5F5F5F5F5F5F5F5F5F5F5F5F5F5F5F5F5F5F5F5F5F5F5F5F5F5F5F5F5F5F5F5F5F5F5F5F5
310
F5F5F5F5F5F5F5F5F5F5F5F5F5F5F5F5F5F5F5F5F5F5F5F5F5F5F5F5F5F5F5F5F5F5F5F5F5F5F5F5F5F5F5F5F5F5F5F5F5F5F5F5F5F5F5F5F5F5F5F5F5F5F5F5F5F5F5F5F5F5F5F5F5F5F5F5F5F5F5F5F5F5F5F5F5F5F5F5F5F5F5F5F5F5F5F5F5E2EFE2F5F5F5F5F5F5F5F5F5F5F5F5F5F5F5F5F5F5F5F5F5F5F5F5F5F5F5
310
F5F5F5F5F5F5F5F5F5F5F5F5F5F5F5F5F5F5F5F5F5F5F5F5F5F5F5F5F5F5F5F5F5F5F5F5F5F5F5F5F5F5F5F5F5F5F5F5F5F5F5F5F5F5F5F5F5F5F5F5F5F5F5F5F5F5F5F5F5F5F5F5F5F5F5F5F5F5F5F5F5F5F5F5F5F5F5F5F5F5F5F5F5F5F5F5F5F5F5F5F5F5F5F5F5F5F5F5F5F5F5F5F5F5F5F5F5F5F5F5F5F5F5F5F5F5F5
310
F5F5F5F5F5F5F5F5F5F5F5F5F5F5F5F5F5F5F5F5F5F5F5E2EFE2F5F5F5F5F5F5F5F5F5F5F5F5F5F5F5F5F5F5F5F5F5F5F5F5F5F5F5F5F5F5F5F5F5F5F5F5F5F5F5F5F5F5F5F5F5F5F5F5F5F5F5F5F5F5F5F5F5F5F5F5F5F5F5F5F5F5F5F5F5F5F5F5F5F5F5F5F5F5F5F5F5F5F5F5F5F5F5F5F5F5F5F5F5F5F5F5F5F5F5F5F5
310
F5F5F5F5F5F5F5F5F5F5F5F5F5F5F5F5F5F5F5F5F5F5F5F5F5F5F5F5F5F5F5F5F5F5F5F5F5F5F5F5F5F5F5F5F5F5F5F5F5F5F5F5F5F5F5F5F5F5F5F5F5F5F5F5F5F5F5F5F5F5F5F5F5F5F5F5E2EFE2F5F5F5F5F5F5F5F5F5F5F5F5F5F5F5F5F5F5F5F5F5F5F5F5F5F5F5F5F5F5F5F5F5F5F5F5F5F5F5F5F5F5F5F5F5F5F5F5
310
F5F5F5F5F5F5F5F5F5F5F5F5F5F5F5F5F5F5F5F5F5F5F5F5F5F5F5F5F5F5F5F5F5F5F5F5F5F5F5F5F5F5F5F5F5F5F5F5F5F5F5F5F5F5F5F5F5F5F5F5F5F5F5F5F5F5F5F5F5F5F5F5F5F5F5F5F5F5F5F5F5F5F5F5F5F5F5F5F5F5F5F5F5F5F5F5F5F5F5F5F5F5F5F5F5F5F5F5F5F5F5F5F5F5F5F5F5F5F5F5F5F5F5F5F5F5F5
310
F5F5E2EFE2F5F5F5F5F5F5F5F5F5F5F5F5F5F5F5F5F5F5F5F5F5F5F5F5F5F5F5F5F5F5F5F5F5F5F5F5F5F5F5F5F5F5F5F5F5F5F5F5F5F5F5F5F5F5F5F5F5F5F5F5F5F5F5F5F5F5F5F5F5F5F5F5F5F5F5F5F5F5F5F5F5F5F5F5F5F5F5F5F5F5F5F5F5F5F5F5F5F5F5F5F5F5F5F5F5F5F5F5F5F5F5F5F5F5F5F5F5F5F5F5F5F5
310
F5F5F5F5F5F5F5F5F5F5F5F5F5F5F5F5F5F5F5F5F5F5F5F5F5F5F5F5F5F5F5F5F5F5F5F5F5F5F5F5F5F5F5F5F5F5F5F5F5F5F5F5F5F5F5E2EFE2F5F5F5F5F5F5F5F5F5F5F5F5F5F5F5F5F5F5F5F5F5F5F5F5F5F5F5F5F5F5F5F5F5F5F5F5F5F5F5F5F5F5F5F5F5F5F5F5F5F5F5F5F5F5F5F5F5F5F5F5F5F5F5F5F5F5F5F5F5
310
F5F5F5F5F5F5F5F5F5F5F5F5F5F5F5F5F5F5F5F5F5F5F5F5F5F5F5F5F5F5F5F5F5F5F5F5F5F5F5F5F5F5F5F5F5F5F5F5F5F5F5F5F5F5F5F5F5F5F5F5F5F5F5F5F5F5F5F5F5F5F5F5F5F5F5F5F5F5F5F5F5F5F5F5F5F5F5F5F5F5F5F5F5F5F5F5F5F5F5F5F5F5F5F5F5F5F5F5E2EFE2F5F5F5F5F5F5F5F5F5F5F5F5F5F5F5F5
310
F5F5F5F5F5F5F5F5F5F5F5F5F5F5F5F5F5F5F5F5F5F5F5F5F5F5F5F5F5F5F5F5F5F5F5F5F5F5F5F5F5F5F5F5F5F5F5F5F5F5F5F5F5F5F5F5F5F5F5F5F5F5F5F5F5F5F5F5F5F5F5F5F5F5F5F5F5F5F5F5F5F5F5F5F5F5F5F5F5F5F5F5F5F5F5F5F5F5F5F5F5F5F5F5F5F5F5F5F5F5F5F5F5F5F5F5F5F5F5F5F5F5F5F5F5F5F5
310
F5F5F5F5F5F5F5F5F5F5F5F5F5F5F5F5F5F5F5F5F5F5F5F5F5F5F5F5F5F5F5F5F5F5E2EFE2F5F5F5F5F5F5F5F5F5F5F5F5F5F5F5F5F5F5F5F5F5F5F5F5F5F5F5F5F5F5F5F5F5F5F5F5F5F5F5F5F5F5F5F5F5F5F5F5F5F5F5F5F5F5F5F5F5F5F5F5F5F5F5F5F5F5F5F5F5F5F5F5F5F5F5F5F5F5F5F5F5F5F5F5F5F5F5F5F5F5
310
F5F5F5F5F5F5F5F5F5F5F5F5F5F5F5F5F5F5F5F5F5F5F5F5F5F5F5F5F5F5F5F5F5F5F5F5F5F5F5F5F5F5F5F5F5F5F5F5F5F5F5F5F5F5F5F5F5F5F5F5F5F5F5F5F5F5F5F5F5F5F5F5F5F5F5F5F5F5F5F5F5F5F5F5F5F5F5E2EFE2F5F5F5F5F5F5F5F5F5F5F5F5F5F5F5F5F5F5F5F5F5F5F5F5F5F5F5F5F5F5F5F5F5F5F5F5F5
310
F5F5F5F5F5F5F5F5F5F5F5F5F5F5F5F5F5F5F5F5F5F5F5F5F5F5F5F5F5F5F5F5F5F5F5F5F5F5F5F5F5F5F5F5F5F5F5F5F5F5F5F5F5F5F5F5F5F5F5F5F5F5F5F5F5F5F5F5F5F5F5F5F5F5F5F5F5F5F5F5F5F5F5F5F5F5F5F5F5F5F5F5F5F5F5F5F5F5F5F5F5F5F5F5F5F5F5F5F5F5F5F5F5F5F5F5F5F5F5F5F5F5F5F5F5F5F5
310
F5F5F5F5F5F5F5F5F5F5F5F5F5E2EFE2F5E2F5F5F5F5F5F5F5F5F5F5F5F5F5F5F5F5F5F5F5F5F5F5F5F5F5F5F5F5F5F5F5F5F5F5F5F5F5F5F5F5F5F5F5F5F5F5F5F5F5F5F5F5F5F5F5F5F5F5F5F5F5F5F5F5F5F5F5F5F5F5F5F5F5F5F5F5F5F5F5F5F5F5F5F5F5F5F5F5F5F5F5F5F5F5F5F5F5F5F5F5F5F5F5F5F5F5F5F5F5
310
F5F5F5F5F5F5F5F5F5F5F5F5F5F5F5F5F5F5F5F5F5F5F5F5F5F5F5F5F5F5F5F5F5F5F5F5F5F5F5F5F5F5F5F5F5F5F5F5F5F5F5F5F5F5F5F5F5F5F5F5F5F5F5F5E2F5E2EFE2F5E2F5F5F5F5F5F5F5F5F5F5F5F5F5F5F5F5F5F5F5F5F5F5F5F5F5F5F5F5F5F5F5F5F5F5F5F5F5F5F5F5F5F5F5F5F5F5F5F5F5F5F5F5F5F5F5F5
310
F5F5F5F5F5F5F5F5F5F5F5F5F5F5F5F5F5F5F5F5F5F5F5F5F5F5F5F5F5F5F5F5F5F5F5F5F5F5F5F5F5F5F5F5F5F5F5F5F5F5F5F5F5F5F5F5F5F5F5F5F5F5F5F5F5F5F5F5F5F5F5F5F5F5F5F5F5F5F5F5F5F5F5F5F5F5F5F5F5F5F5F5F5F5F5F5F5F5F5F5F5F5F5F5F5F5F5F5F5F5F5F5F5F5F5F5F5E2F5E2EFE2F5E2F5F5F5
310
F5F5F5F5F5F5F5F5F5F5F5F5F5F5F5F5F5F5F5F5F5F5F5F5F5F5F5F5F5F5F5F5F5F5F5F5F5F5F5F5F5F5F5F5F5F5F5F5F5F5F5F5F5F5F5F5F5F5F5F5F5F5F5F5F5F5F5F5F5F5F5F5F5F5F5F5F5F5F5F5F5F5F5F5F5F5F5F5F5F5F5F5F5F5F5F5F5F5F5F5F5F5F5F5F5F5F5F5F5F5F5F5F5F5F5F5F5F5F5F5F5F5F5F5F5F5F5
310
F5F5F5F5F5F5F5F5F5F5F5F5F5F5F5F5F5F5F5F5F5F5F5F5F5F5F5F5F5F5F5F5F5F5F5F5F5F5F5F5F5F5F5E2F5E2EFE2F5E2F5F5F5F5F5F5F5F5F5F5F5F5F5F5F5F5F5F5F5F5F5F5F5F5F5F5F5F5F5F5F5F5F5F5F5F5F5F5F5F5F5F5F5F5F5F5F5F5F5F5F5F5F5F5F5F5F5F5F5F5F5F5F5F5F5F5F5F5F5F5F5F5F5F5F5F5F5
310
F5F5F5F5F5F5F5F5F5F5F5F5F5F5F5F5F5F5F5F5F5F5F5F5F5F5F5F5F5F5F5F5F5F5F5F5F5F5F5F5F5F5F5F5F5F5F5F5F5F5F5F5F5F5F5F5F5F5F5F5F5F5F5F5F5F5F5F5F5F5F5F5F5F5F5F5F5F5F5F5F5F5F5F5F5F5F5F5F5F5F5F5F5F5F5F5E2F5E2EFE2F5E2F5F5F5F5F5F5F5F5F5F5F5F5F5F5F5F5F5F5F5F5F5F5F5F5
310
F5F5F5F5F5F5F5F5F5F5F5F5F5F5F5F5F5F5F5F5F5F5F5F5F5F5F5F5F5F5F5F5F5F5F5F5F5F5F5F5F5F5F5F5F5F5F5F5F5F5F5F5F5F5F5F5F5F5F5F5F5F5F5F5F5F5F5F5F5F5F5F5F5F5F5F5F5F5F5F5F5F5F5F5F5F5F5F5F5F5F5F5F5F5F5F5F5F5F5F5F5F5F5F5F5F5F5F5F5F5F5F5F5F5F5F5F5F5F5F5F5F5F5F5F5F5F5
310
F5F5F5F5F5F5F5F5F5F5F5F5F5F5F5F5F5F5F5F5F5F5E2F5E2EFE2F5E2F5F5F5F5F5F5F5F5F5F5F5F5F5F5F5F5F5F5F5F5F5F5F5F5F5F5F5F5F5F5F5F5F5F5F5F5F5F5F5F5F5F5F5F5F5F5F5F5F5F5F5F5F5F5F5F5F5F5F5F5F5F5F5F5F5F5F5F5F5F5F5F5F5F5F5F5F5F5F5F5F5F5F5F5F5F5F5F5F5F5F5F5F5F5F5F5F5F5
310
F5F5F5F5F5F5F5F5F5F5F5F5F5F5F5F5F5F5F5F5F5F5F5F5F5F5F5F5F5F5F5F5F5F5F5F5F5F5F5F5F5F5F5F5F5F5F5F5F5F5F5F5F5F5F5F5F5F5F5F5F5F5F5F5F5F5F5F5F5F5F5F5F5F5F5E2F5E2EFE2F5E2F5F5F5F5F5F5F5F5F5F5F5F5F5F5F5F5F5F5F5F5F5F5F5F5F5F5F5F5F5F5F5F5F5F5F5F5F5F5F5F5F5F5F5F5F5
310
F5F5F5F5F5F5F5F5F5F5F5F5F5F5F5F5F5F5F5F5F5F5F5F5F5F5F5F5F5F5F5F5F5F5F5F5F5F5F5F5F5F5F5F5F5F5F5F5F5F5F5F5F5F5F5F5F5F5F5F5F5F5F5F5F5F5F5F5F5F5F5F5F5F5F5F5F5F5F5F5F5F5F5F5F5F5F5F5F5F5F5F5F5F5F5F5F5F5F5F5F5F5F5F5F5F5F5F5F5F5F5F5F5F5F5F5F5F5F5F5F5F5F5F5F5F5F5
310
F5E2F5E2EFE2F5E2F5F5F5F5F5F5F5F5F5F5F5F5F5F5F5F5F5F5F5F5F5F5F5F5F5F5F5F5F5F5F5F5F5F5F5F5F5F5F5F5F5F5F5F5F5F5F5F5F5F5F5F5F5F5F5F5F5F5F5F5F5F5F5F5F5F5F5F5F5F5F5F5F5F5F5F5F5F5F5F5F5F5F5F5F5F5F5F5F5F5F5F5F5F5F5F5F5F5F5F5F5F5F5F5F5F5F5F5F5F5F5F5F5F5F5F5F5F5F5
310
F5F5F5F5F5F5F5F5F5F5F5F5F5F5F5F5F5F5F5F5F5F5F5F5F5F5F5F5F5F5F5F5F5F5F5F5F5F5F5F5F5F5F5F5F5F5F5F5F5F5F5F5F5F5E2F5E2EFE2F5E2F5F5F5F5F5F5F5F5F5F5F5F5F5F5F5F5F5F5F5F5F5F5F5F5F5F5F5F5F5F5F5F5F5F5F5F5F5F5F5F5F5F5F5F5F5F5F5F5F5F5F5F5F5F5F5F5F5F5F5F5F5F5F5F5F5F5
310
F5F5F5F5F5F5F5F5F5F5F5F5F5F5F5F5F5F5F5F5F5F5F5F5F5F5F5F5F5F5F5F5F5F5F5F5F5F5F5F5F5F5F5F5F5F5F5F5F5F5F5F5F5F5F5F5F5F5F5F5F5F5F5F5F5F5F5F5F5F5F5F5F5F5F5F5F5F5F5F5F5F5F5F5F5F5F5F5F5F5F5F5F5F5F5F5F5F5F5F5F5F5F5F5F5F5F5E2F5E2EFE2F5E2F5F5F5F5F5F5F5F5F5F5F5F5F5
310
F5F5F5F5F5F5F5F5F5F5F5F5F5F5F5F5F5F5F5F5F5F5F5F5F5F5F5F5F5F5F5F5F5F5F5F5F5F5F5F5F5F5F5F5F5F5F5F5F5F5F5F5F5F5F5F5F5F5F5F5F5F5F5F5F5F5F5F5F5F5F5F5F5F5F5F5F5F5F5F5F5F5F5F5F5F5F5F5F5F5F5F5F5F5F5F5F5F5F5F5F5F5F5F5F5F5F5F5F5F5F5F5F5F5F5F5F5F5F5F5F5F5F5F5F5F5F5
310
F5F5F5F5F5F5F5F5F5F5F5F5F5F5F5F5F5F5F5F5F5F5F5F5F5F5F5F5F5F5F5F5F5E2F5E2EFE2F5E2F5F5F5F5F5F5F5F5F5F5F5F5F5F5F5F5F5F5F5F5F5F5F5F5F5F5F5F5F5F5F5F5F5F5F5F5F5F5F5F5F5F5F5F5F5F5F5F5F5F5F5F5F5F5F5F5F5F5F5F5F5F5F5F5F5F5F5F5F5F5F5F5F5F5F5F5F5F5F5F5F5F5F5F5F5F5F5
310
F5F5F5F5F5F5F5F5F5F5F5F5F5F5F5F5F5F5F5F5F5F5F5F5F5F5F5F5F5F5F5F5F5F5F5F5F5F5F5F5F5F5F5F5F5F5F5F5F5F5F5F5F5F5F5F5F5F5F5F5F5F5F5F5F5F5F5F5F5F5F5F5F5F5F5F5F5F5F5F5F5F5F5F5F5F5E2F5E2EFE2F5E2F5F5F5F5F5F5F5F5F5F5F5F5F5F5F5F5F5F5F5F5F5F5F5F5F5F5F5F5F5F5F5F5F5F5
310
F5F5F5F5F5F5F5F5F5F5F5F5F5F5F5F5F5F5F5F5F5F5F5F5F5F5F5F5F5F5F5F5F5F5F5F5F5F5F5F5F5F5F5F5F5F5F5F5F5F5F5F5F5F5F5F5F5F5F5F5F5F5F5F5F5F5F5F5F5F5F5F5F5F5F5F5F5F5F5F5F5F5F5F5F5F5F5F5F5F5F5F5F5F5F5F5F5F5F5F5F5F5F5F5F5F5F5F5F5F5F5F5F5F5F5F5F5F5F5F5F5F5F5F5F5F5F5
310
F5F5F5F5F5F5F5F5F5F5F5F5E2F5E2EFE2F5E2F5F5F5F5F5F5F5F5F5F5F5F5F5F5F5F5F5F5F5F5F5F5F5F5F5F5F5F5F5F5F5F5F5F5F5F5F5F5F5F5F5F5F5F5F5F5F5F5F5F5F5F5F5F5F5F5F5F5F5F5F5F5F5F5F5F5F5F5F5F5F5F5F5F5F5F5F5F5F5F5F5F5F5F5F5F5F5F5F5F5F5F5F5F5F5F5F5F5F5F5F5F5F5F5F5F5F5F5
310
F5F5F5F5F5F5F5F5F5F5F5F5F5F5F5F5F5F5F5F5F5F5F5F5F5F5F5F5F5F5F5F5F5F5F5F5F5F5F5F5F5F5F5F5F5F5F5F5F5F5F5F5F5F5F5F5F5F5F5F5F5F5F5F5F5E2F5E2EFE2F5E2F5F5F5F5F5F5F5F5F5F5F5F5F5F5F5F5F5F5F5F5F5F5F5F5F5F5F5F5F5F5F5F5F5F5F5F5F5F5F5F5F5F5F5F5F5F5F5F5F5F5F5F5F5F5F5
310
F5F5F5F5F5F5F5F5F5F5F5F5F5F5F5F5F5F5F5F5F5F5F5F5F5F5F5F5F5F5F5F5F5F5F5F5F5F5F5F5F5F5F5F5F5F5F5F5F5F5F5F5F5F5F5F5F5F5F5F5F5F5F5F5F5F5F5F5F5F5F5F5F5F5F5F5F5F5F5F5F5F5F5F5F5F5F5F5F5F5F5F5F5F5F5F5F5F5F5F5F5F5F5F5F5F5F5F5F5F5F5F5F5F5F5F5F5F5E2F5E2EFE2F5E2F5F5
310
F5F5F5F5F5F5F5F5F5F5F5F5F5F5F5F5F5F5F5F5F5F5F5F5F5F5F5F5F5F5F5F5F5F5F5F5F5F5F5F5F5F5F5F5F5F5F5F5F5F5F5F5F5F5F5F5F5F5F5F5F5F5F5F5F5F5F5F5F5F5F5F5F5F5F5F5F5F5F5F5F5F5F5F5F5F5F5F5F5F5F5F5F5F5F5F5F5F5F5F5F5F5F5F5F5F5F5F5F5F5F5F5F5F5F5F5F5F5F5F5F5F5F5F5F5F5F5
310
F5F5F5F5F5F5F5F5F5F5F5F5F5F5F5F5F5F5F5F5F5F5F5F5F5F5F5F5F5F5F5F5F5F5F5F5F5F5F5F5F5F5F5F5E2F5E2EFE2F5E2F5F5F5F5F5F5F5F5F5F5F5F5F5F5F5F5F5F5F5F5F5F5F5F5F5F5F5F5F5F5F5F5F5F5F5F5F5F5F5F5F5F5F5F5F5F5F5F5F5F5F5F5F5F5F5F5F5F5F5F5F5F5F5F5F5F5F5F5F5F5F5F5F5F5F5F5
310
F5F5F5F5F5F5F5F5F5F5F5F5F5F5F5F5F5F5F5F5F5F5F5F5F5F5F5F5F5F5F5F5F5F5F5F5F5F5F5F5F5F5F5F5F5F5F5F5F5F5F5F5F5F5F5F5F5F5F5F5F5F5F5F5F5F5F5F5F5F5F5F5F5F5F5F5F5F5F5F5F5F5F5F5F5F5F5F5F5F5F5F5F5F5F5F5F5E2F5E2EFE2F5E2F5F5F5F5F5F5F5F5F5F5F5F5F5F5F5F5F5F5F5F5F5F5F5
310
F5F5F5F5F5F5F5F5F5F5F5F5F5F5F5F5F5F5F5F5F5F5F5F5F5F5F5F5F5F5F5F5F5F5F5F5F5F5F5F5F5F5F5F5F5F5F5F5F5F5F5F5F5F5F5F5F5F5F5F5F5F5F5F5F5F5F5F5F5F5F5F5F5F5F5F5F5F5F5F5F5F5F5F5F5F5F5F5F5F5F5F5F5F5F5F5F5F5F5F5F5F5F5F5F5F5F5F5F5F5F5F5F5F5F5F5F5F5F5F5F5F5F5F5F5F5F5
310
F5F5F5F5F5F5F5F5F5F5F5F5F5F5F5F5F5F5F5F5F5F5F5E2F5E2EFE2F5F5F5F5F5F5F5F5F5F5F5F5F5F5F5F5F5F5F5F5F5F5F5F5F5F5F5F5F5F5F5F5F5F5F5F5F5F5F5F5F5F5F5F5F5F5F5F5F5F5F5F5F5F5F5F5F5F5F5F5F5F5F5F5F5F5F5F5F5F5F5F5F5F5F5F5F5F5F5F5F5F5F5F5F5F5F5F5F5F5F5F5F5F5F5F5F5F5F5
310
F5F5F5F5F5F5F5F5F5F5F5F5F5F5F5F5F5F5F5F5F5F5F5F5F5F5F5F5F5F5F5F5F5F5F5F5F5F5F5F5F5F5F5F5F5F5F5F5F5F5F5F5F5F5F5F5F5F5F5F5F5F5F5F5F5F5F5F5F5F5F5F5F5F5F5F5F5F5E2EFE2F5F5F5F5F5F5F5F5F5F5F5F5F5F5F5F5F5F5F5F5F5F5F5F5F5F5F5F5F5F5F5F5F5F5F5F5F5F5F5F5F5F5F5F5F5F5
310
F5F5F5F5F5F5F5F5F5F5F5F5F5F5F5F5F5F5F5F5F5F5F5F5F5F5F5F5F5F5F5F5F5F5F5F5F5F5F5F5F5F5F5F5F5F5F5F5F5F5F5F5F5F5F5F5F5F5F5F5F5F5F5F5F5F5F5F5F5F5F5F5F5F5F5F5F5F5F5F5F5F5F5F5F5F5F5F5F5F5F5F5F5F5F5F5F5F5F5F5F5F5F5F5F5F5F5F5F5F5F5F5F5F5F5F5F5F5F5F5F5F5F5F5F5F5F5
310
F5F5F5F5E2EFE2F5F5F5F5F5F5F5F5F5F5F5F5F5F5F5F5F5F5F5F5F5F5F5F5F5F5F5F5F5F5F5F5F5F5F5F5F5F5F5F5F5F5F5F5F5F5F5F5F5F5F5F5F5F5F5F5F5F5F5F5F5F5F5F5F5F5F5F5F5F5F5F5F5F5F5F5F5F5F5F5F5F5F5F5F5F5F5F5F5F5F5F5F5F5F5F5F5F5F5F5F5F5F5F5F5F5F5F5F5F5F5F5F5F5F5F5F5F5F5F5
310
F5F5F5F5F5F5F5F5F5F5F5F5F5F5F5F5F5F5F5F5F5F5F5F5F5F5F5F5F5F5F5F5F5F5F5F5F5F5F5F5F5F5F5F5F5F5F5F5F5F5F5F5F5F5F5F5F5E2EFE2F5F5F5F5F5F5F5F5F5F5F5F5F5F5F5F5F5F5F5F5F5F5F5F5F5F5F5F5F5F5F5F5F5F5F5F5F5F5F5F5F5F5F5F5F5F5F5F5F5F5F5F5F5F5F5F5F5F5F5F5F5F5F5F5F5F5F5
310
F5F5F5F5F5F5F5F5F5F5F5F5F5F5F5F5F5F5F5F5F5F5F5F5F5F5F5F5F5F5F5F5F5F5F5F5F5F5F5F5F5F5F5F5F5F5F5F5F5F5F5F5F5F5F5F5F5F5F5F5F5F5F5F5F5F5F5F5F5F5F5F5F5F5F5F5F5F5F5F5F5F5F5F5F5F5F5F5F5F5F5F5F5F5F5F5F5F5F5F5F5F5F5F5F5F5F5F5F5F5E2EFE2F5F5F5F5F5F5F5F5F5F5F5F5F5F5
310
F5F5F5F5F5F5F5F5F5F5F5F5F5F5F5F5F5F5F5F5F5F5F5F5F5F5F5F5F5F5F5F5F5F5F5F5F5F5F5F5F5F5F5F5F5F5F5F5F5F5F5F5F5F5F5F5F5F5F5F5F5F5F5F5F5F5F5F5F5F5F5F5F5F5F5F5F5F5F5F5F5F5F5F5F5F5F5F5F5F5F5F5F5F5F5F5F5F5F5F5F5F5F5F5F5F5F5F5F5F5F5F5F5F5F5F5F5F5F5F5F5F5F5F5F5F5F5
310
F5F5F5F5F5F5F5F5F5F5F5F5F5F5F5F5F5F5F5F5F5F5F5F5F5F5F5F5F5F5F5F5F5F5F5F5E2EFE2F5F5F5F5F5F5F5F5F5F5F5F5F5F5F5F5F5F5F5F5F5F5F5F5F5F5F5F5F5F5F5F5F5F5F5F5F5F5F5F5F5F5F5F5F5F5F5F5F5F5F5F5F5F5F5F5F5F5F5F5F5F5F5F5F5F5F5F5F5F5F5F5F5F5F5F5F5F5F5F5F5F5F5F5F5F5F5F5
310
F5F5F5F5F5F5F5F5F5F5F5F5F5F5F5F5F5F5F5F5F5F5F5F5F5F5F5F5F5F5F5F5F5F5F5F5F5F5F5F5F5F5F5F5F5F5F5F5F5F5F5F5F5F5F5F5F5F5F5F5F5F5F5F5F5F5F5F5F5F5F5F5F5F5F5F5F5F5F5F5F5F5F5F5F5F5F5F5F5E2EFE2F5F5F5F5F5F5F5F5F5F5F5F5F5F5F5F5F5F5F5F5F5F5F5F5F5F5F5F5F5F5F5F5F5F5F5
310
F5F5F5F5F5F5F5F5F5F5F5F5F5F5F5F5F5F5F5F5F5F5F5F5F5F5F5F5F5F5F5F5F5F5F5F5F5F5F5F5F5F5F5F5F5F5F5F5F5F5F5F5F5F5F5F5F5F5F5F5F5F5F5F5F5F5F5F5F5F5F5F5F5F5F5F5F5F5F5F5F5F5F5F5F5F5F5F5F5F5F5F5F5F5F5F5F5F5F5F5F5F5F5F5F5F5F5F5F5F5F5F5F5F5F5F5F5F5F5F5F5F5F5F5F5F5F5
310
F5F5F5F5F5F5F5F5F5F5F5F5F5F5F5E2EFE2F5F5F5F5F5F5F5F5F5F5F5F5F5F5F5F5F5F5F5F5F5F5F5F5F5F5F5F5F5F5F5F5F5F5F5F5F5F5F5F5F5F5F5F5F5F5F5F5F5F5F5F5F5F5F5F5F5F5F5F5F5F5F5F5F5F5F5F5F5F5F5F5F5F5F5F5F5F5F5F5F5F5F5F5F5F5F5F5F5F5F5F5F5F5F5F5F5F5F5F5F5F5F5F5F5F5F5F5F5
310
F5F5F5F5F5F5F5F5F5F5F5F5F5F5F5F5F5F5F5F5F5F5F5F5F5F5F5F5F5F5F5F5F5F5F5F5F5F5F5F5F5F5F5F5F5F5F5F5F5F5F5F5F5F5F5F5F5F5F5F5F5F5F5F5F5F5F5F5E2EFE2F5F5F5F5F5F5F5F5F5F5F5F5F5F5F5F5F5F5F5F5F5F5F5F5F5F5F5F5F5F5F5F5F5F5F5F5F5F5F5F5F5F5F5F5F5F5F5F5F5F5F5F5F5F5F5F5
310
F5F5F5F5F5F5F5F5F5F5F5F5F5F5F5F5F5F5F5F5F5F5F5F5F5F5F5F5F5F5F5F5F5F5F5F5F5F5F5F5F5F5F5F5F5F5F5F5F5F5F5F5F5F5F5F5F5F5F5F5F5F5F5F5F5F5F5F5F5F5F5F5F5F5F5F5F5F5F5F5F5F5F5F5F5F5F5F5F5F5F5F5F5F5F5F5F5F5F5F5F5F5F5F5F5F5F5F5F5F5F5F5F5F5F5F5F5F5F5F5F5E2EFE2F5F5F5
310
F5F5F5F5F5F5F5F5F5F5F5F5F5F5F5F5F5F5F5F5F5F5F5F5F5F5F5F5F5F5F5F5F5F5F5F5F5F5F5F5F5F5F5F5F5F5F5F5F5F5F5F5F5F5F5F5F5F5F5F5F5F5F5F5F5F5F5F5F5F5F5F5F5F5F5F5F5F5F5F5F5F5F5F5F5F5F5F5F5F5F5F5F5F5F5F5F5F5F5F5F5F5F5F5F5F5F5F5F5F5F5F5F5F5F5F5F5F5F5F5F5F5F5F5F5F5F5
310
F5F5F5F5F5F5F5F5F5F5F5F5F5F5F5F5F5F5F5F5F5F5F5F5F5F5F5F5F5F5F5F5F5F5F5F5F5F5F5F5F5F5F5F5F5F5F5E2EFE2F5E2F5F5F5F5F5F5F5F5F5F5F5F5F5F5F5F5F5F5F5F5F5F5F5F5F5F5F5F5F5F5F5F5F5F5F5F5F5F5F5F5F5F5F5F5F5F5F5F5F5F5F5F5F5F5F5F5F5F5F5F5F5F5F5F5F5F5F5F5F5F5F5F5F5F5F5
310
F5F5F5F5F5F5F5F5F5F5F5F5F5F5F5F5F5F5F5F5F5F5F5F5F5F5F5F5F5F5F5F5F5F5F5F5F5F5F5F5F5F5F5F5F5F5F5F5F5F5F5F5F5F5F5F5F5F5F5F5F5F5F5F5F5F5F5F5F5F5F5F5F5F5F5F5F5F5F5F5F5F5F5F5F5F5F5F5F5F5F5F5F5F5F5F5F5F5E2F5E2EFE2F5E2F5F5F5F5F5F5F5F5F5F5F5F5F5F5F5F5F5F5F5F5F5F5
310
F5F5F5F5F5F5F5F5F5F5F5F5F5F5F5F5F5F5F5F5F5F5F5F5F5F5F5F5F5F5F5F5F5F5F5F5F5F5F5F5F5F5F5F5F5F5F5F5F5F5F5F5F5F5F5F5F5F5F5F5F5F5F5F5F5F5F5F5F5F5F5F5F5F5F5F5F5F5F5F5F5F5F5F5F5F5F5F5F5F5F5F5F5F5F5F5F5F5F5F5F5F5F5F5F5F5F5F5F5F5F5F5F5F5F5F5F5F5F5F5F5F5F5F5F5F5F5
310
F5F5F5F5F5F5F5F5F5F5F5F5F5F5F5F5F5F5F5F5F5F5F5F5E2F5E2EFE2F5E2F5F5F5F5F5F5F5F5F5F5F5F5F5F5F5F5F5F5F5F5F5F5F5F5F5F5F5F5F5F5F5F5F5F5F5F5F5F5F5F5F5F5F5F5F5F5F5F5F5F5F5F5F5F5F5F5F5F5F5F5F5F5F5F5F5F5F5F5F5F5F5F5F5F5F5F5F5F5F5F5F5F5F5F5F5F5F5F5F5F5F5F5F5F5F5F5
310
F5F5F5F5F5F5F5F5F5F5F5F5F5F5F5F5F5F5F5F5F5F5F5F5F5F5F5F5F5F5F5F5F5F5F5F5F5F5F5F5F5F5F5F5F5F5F5F5F5F5F5F5F5F5F5F5F5F5F5F5F5F5F5F5F5F5F5F5F5F5F5F5F5F5F5F5F5E2F5E2EFE2F5E2F5F5F5F5F5F5F5F5F5F5F5F5F5F5F5F5F5F5F5F5F5F5F5F5F5F5F5F5F5F5F5F5F5F5F5F5F5F5F5F5F5F5F5
310
F5F5F5F5F5F5F5F5F5F5F5F5F5F5F5F5F5F5F5F5F5F5F5F5F5F5F5F5F5F5F5F5F5F5F5F5F5F5F5F5F5F5F5F5F5F5F5F5F5F5F5F5F5F5F5F5F5F5F5F5F5F5F5F5F5F5F5F5F5F5F5F5F5F5F5F5F5F5F5F5F5F5F5F5F5F5F5F5F5F5F5F5F5F5F5F5F5F5F5F5F5F5F5F5F5F5F5F5F5F5F5F5F5F5F5F5F5F5F5F5F5F5F5F5F5F5F5
310
F5F5F5E2F5E2EFE2F5E2F5F5F5F5F5F5F5F5F5F5F5F5F5F5F5F5F5F5F5F5F5F5F5F5F5F5F5F5F5F5F5F5F5F5F5F5F5F5F5F5F5F5F5F5F5F5F5F5F5F5F5F5F5F5F5F5F5F5F5F5F5F5F5F5F5F5F5F5F5F5F5F5F5F5F5F5F5F5F5F5F5F5F5F5F5F5F5F5F5F5F5F5F5F5F5F5F5F5F5F5F5F5F5F5F5F5F5F5F5F5F5F5F5F5F5F5F5
310
F5F5F5F5F5F5F5F5F5F5F5F5F5F5F5F5F5F5F5F5F5F5F5F5F5F5F5F5F5F5F5F5F5F5F5F5F5F5F5F5F5F5F5F5F5F5F5F5F5F5F5F5F5F5F5F5E2F5E2EFE2F5E2F5F5F5F5F5F5F5F5F5F5F5F5F5F5F5F5F5F5F5F5F5F5F5F5F5F5F5F5F5F5F5F5F5F5F5F5F5F5F5F5F5F5F5F5F5F5F5F5F5F5F5F5F5F5F5F5F5F5F5F5F5F5F5F5
310
F5F5F5F5F5F5F5F5F5F5F5F5F5F5F5F5F5F5F5F5F5F5F5F5F5F5F5F5F5F5F5F5F5F5F5F5F5F5F5F5F5F5F5F5F5F5F5F5F5F5F5F5F5F5F5F5F5F5F5F5F5F5F5F5F5F5F5F5F5F5F5F5F5F5F5F5F5F5F5F5F5F5F5F5F5F5F5F5F5F5F5F5F5F5F5F5F5F5F5F5F5F5F5F5F5F5F5F5F5E2F5E2EFE2F5E2F5F5F5F5F5F5F5F5F5F5F5
310
F5F5F5F5F5F5F5F5F5F5F5F5F5F5F5F5F5F5F5F5F5F5F5F5F5F5F5F5F5F5F5F5F5F5F5F5F5F5F5F5F5F5F5F5F5F5F5F5F5F5F5F5F5F5F5F5F5F5F5F5F5F5F5F5F5F5F5F5F5F5F5F5F5F5F5F5F5F5F5F5F5F5F5F5F5F5F5F5F5F5F5F5F5F5F5F5F5F5F5F5F5F5F5F5F5F5F5F5F5F5F5F5F5F5F5F5F5F5F5F5F5F5F5F5F5F5F5
310
F5F5F5F5F5F5F5F5F5F5F5F5F5F5F5F5F5F5F5F5F5F5F5F5F5F5F5F5F5F5F5F5F5F5F5E2F5E2EFE2F5E2F5F5F5F5F5F5F5F5F5F5F5F5F5F5F5F5F5F5F5F5F5F5F5F5F5F5F5F5F5F5F5F5F5F5F5F5F5F5F5F5F5F5F5F5F5F5F5F5F5F5F5F5F5F5F5F5F5F5F5F5F5F5F5F5F5F5F5F5F5F5F5F5F5F5F5F5F5F5F5F5F5F5F5F5F5
310
F5F5F5F5F5F5F5F5F5F5F5F5F5F5F5F5F5F5F5F5F5F5F5F5F5F5F5F5F5F5F5F5F5F5F5F5F5F5F5F5F5F5F5F5F5F5F5F5F5F5F5F5F5F5F5F5F5F5F5F5F5F5F5F5F5F5F5F5F5F5F5F5F5F5F5F5F5F5F5F5F5F5F5F5F5F5F5F5E2F5E2EFE2F5E2E2E2E2E2E2E2E2F5F5F5F5F5F5F5F5F5E2E2E2E2E2E2E2E2E2E2E2E2E2E2E2E2
310
F5F5F5F5F5F5F5F5F5E2E2E2E2E2E2E2E2E2E2E2E2E2E2E2E2F5F5F5F5F5F5F5F5F5E2E2E2E2E2E2E2E2E2E2E2E2E2E2E2E2F5F5F5F5F5F5F5F5F5E2E2E2E2E2E2E2E2E2E2E2E2E2E2E2E2F5F5F5F5F5F5F5F5F5E2E2E2E2E2E2E2E2E2E2E2E2E2E2E2E2F5F5F5F5F5F5F5F5F5E2E2E2E2E2E2E2E2E2E2E2E2E2E2E2E2F5F5
310
F5F5F5F5F5F5F5E2E2E2E2E2E2E2E2F5E2EFE2F5F5F5F5F5F5F5F5F5F5F5F5F5F5F5F5F5F5F5F5F5F5F5F5F5F5F5F5F5F5F5F5F5F5F5F5F5F5F5F5F5F5F5F5F5F5F5F5F5F5F5F5F5F5F5F5F5F5F5F5F5F5F5F5F5F5F5F5F5F5F5F5F5F5F5F5F5F5F5F5F5F5F5F5F5F5F5F5F5F5F5F5F5F5F5F5F5F5F5F5F5F5F5F5F5F5F5F5
310
F5F5F5F5F5F5F5F5F5F5F5F5F5F5F5F5F5F5F5F5F5F5F5F5F5F5F5F5F5F5F5F5F5F5F5F5F5F5F5F5F5F5F5F5F5F5F5F5F5F5F5F5F5F5F5F5F5F5F5F5F5F5F5F5F5F5F5F5F5E2EFE2F5F5F5F5F5F5F5F5F5F5F5F5F5F5F5F5F5F5F5F5F5F5F5F5F5F5F5F5F5F5F5F5F5F5F5F5F5F5F5F5F5F5F5F5F5F5F5F5F5F5F5F5F5F5F5
310
F5F5F5F5F5F5F5F5F5F5F5F5F5F5F5F5F5F5F5F5F5F5F5F5F5F5F5F5F5F5F5F5F5F5F5F5F5F5F5F5F5F5F5F5F5F5F5F5F5F5F5F5F5F5F5F5F5F5F5F5F5F5F5F5F5F5F5F5F5F5F5F5F5F5F5F5F5F5F5F5F5F5F5F5F5F5F5F5F5F5F5F5F5F5F5F5F5F5F5F5F5F5F5F5F5F5F5F5F5F5F5F5F5F5F5F5F5F5F5F5F5F5E2EFE2E2E2
310
E2E2E2E2E2E2E2E2E2E2E2E2E2E2E2E2E2E2E2E2E2E2E2E2E2E2E2E2E2E2E2E2E2E2E2E2E2E2E2E2E2E2E2E2E2E2E2E2E2E2E2E2E2E2E2E2E2E2E2E2E2E2E2E2E2E2E2E2E2E2E2E2E2E2E2E2E2E2E2E2E2E2E2E2E2E2E2E2E2E2E2E2E2E2E2E2E2E2E2E2E2E2E2E2E2E2E2E2E2E2E2E2E2E2E2E2E2E2E2E2E2E2E2E2E2E2E2
310
E2E2E2E2E2E2E2E2E2E2E2E2E2E2E2E2E2E2E2E2E2E2E2E2E2E2E2E2E2E2E2E2E2E2E2E2E2E2E2E2E2E2E2E2E2E2E2E2E2
  0
XRECORD
  5
111
102
{ACAD_REACTORS
330
110
102
}
330
110
100
AcDbXrecord
280
     1
102
SHADEPLOT
 70
     0
102
SHADEPLOTRESLEVEL
 70
     2
102
SHADEPLOTCUSTOMDPI
 70
   300
  0
XRECORD
  5
116
102
{ACAD_REACTORS
330
115
102
}
330
115
100
AcDbXrecord
280
     1
102
MATERIAL
148
0.0
149
0.0
149
0.0
 93
        0
 94
       63
282
     0
 72
     1
 77
     1
171
     1
175
     1
179
     1
273
     0
  0
XRECORD
  5
114
102
{ACAD_REACTORS
330
113
102
}
330
113
100
AcDbXrecord
280
     1
102
MATERIAL
148
0.0
149
0.0
149
0.0
 93
        0
 94
       63
282
     0
 72
     1
 77
     1
171
     1
175
     1
179
     1
273
     0
  0
XRECORD
  5
10F
102
{ACAD_REACTORS
330
10E
102
}
330
10E
100
AcDbXrecord
280
     1
102
MATERIAL
148
0.0
149
0.0
149
0.0
 93
        0
 94
       63
282
     0
 72
     1
 77
     1
171
     1
175
     1
179
     1
273
     0
  0
XRECORD
  5
118
102
{ACAD_REACTORS
330
117
102
}
330
117
100
AcDbXrecord
280
     1
102
ACAD_ROUNDTRIP_PRE2007_TABLESTYLE
 90
      512
 91
        0
  1

 92
      512
 93
        0
  2

 94
      512
 95
        0
  3

  0
ENDSEC
  0
EOF
